  0
SECTION
  2
HEADER
  9
$ACADVER
  1
AC1015
  9
$ACADMAINTVER
 70
     6
  9
$DWGCODEPAGE
  3
ANSI_1252
  9
$INSBASE
 10
0.0
 20
0.0
 30
0.0
  9
$EXTMIN
 10
-77.5
 20
-28.0
 30
0.0
  9
$EXTMAX
 10
77.5
 20
28.0
 30
0.0
  9
$LIMMIN
 10
0.0
 20
0.0
  9
$LIMMAX
 10
420.0
 20
297.0
  9
$ORTHOMODE
 70
     0
  9
$REGENMODE
 70
     1
  9
$FILLMODE
 70
     1
  9
$QTEXTMODE
 70
     0
  9
$MIRRTEXT
 70
     1
  9
$LTSCALE
 40
1.0
  9
$ATTMODE
 70
     1
  9
$TEXTSIZE
 40
3.5
  9
$TRACEWID
 40
1.0
  9
$TEXTSTYLE
  7
Standard
  9
$CLAYER
  8
0
  9
$CELTYPE
  6
ByLayer
  9
$CECOLOR
 62
   256
  9
$CELTSCALE
 40
1.0
  9
$DISPSILH
 70
     0
  9
$DIMSCALE
 40
1.0
  9
$DIMASZ
 40
3.302
  9
$DIMEXO
 40
1.0
  9
$DIMDLI
 40
3.75
  9
$DIMRND
 40
0.0
  9
$DIMDLE
 40
0.0
  9
$DIMEXE
 40
1.0
  9
$DIMTP
 40
0.0
  9
$DIMTM
 40
0.0
  9
$DIMTXT
 40
3.5
  9
$DIMCEN
 40
2.5
  9
$DIMTSZ
 40
0.0
  9
$DIMTOL
 70
     0
  9
$DIMLIM
 70
     0
  9
$DIMTIH
 70
     1
  9
$DIMTOH
 70
     1
  9
$DIMSE1
 70
     0
  9
$DIMSE2
 70
     0
  9
$DIMTAD
 70
     1
  9
$DIMZIN
 70
     1
  9
$DIMBLK
  1

  9
$DIMASO
 70
     1
  9
$DIMSHO
 70
     1
  9
$DIMPOST
  1

  9
$DIMAPOST
  1

  9
$DIMALT
 70
     0
  9
$DIMALTD
 70
     3
  9
$DIMALTF
 40
0.0393700787
  9
$DIMLFAC
 40
1.0
  9
$DIMTOFL
 70
     1
  9
$DIMTVP
 40
0.0
  9
$DIMTIX
 70
     0
  9
$DIMSOXD
 70
     0
  9
$DIMSAH
 70
     0
  9
$DIMBLK1
  1

  9
$DIMBLK2
  1

  9
$DIMSTYLE
  2
ISO-25
  9
$DIMCLRD
 70
     0
  9
$DIMCLRE
 70
     0
  9
$DIMCLRT
 70
     0
  9
$DIMTFAC
 40
1.0
  9
$DIMGAP
 40
1.524
  9
$DIMJUST
 70
     0
  9
$DIMSD1
 70
     0
  9
$DIMSD2
 70
     0
  9
$DIMTOLJ
 70
     0
  9
$DIMTZIN
 70
     1
  9
$DIMALTZ
 70
     0
  9
$DIMALTTZ
 70
     0
  9
$DIMUPT
 70
     0
  9
$DIMDEC
 70
     2
  9
$DIMTDEC
 70
     2
  9
$DIMALTU
 70
     2
  9
$DIMALTTD
 70
     3
  9
$DIMTXSTY
  7
Standard
  9
$DIMAUNIT
 70
     0
  9
$DIMADEC
 70
     2
  9
$DIMALTRND
 40
0.0
  9
$DIMAZIN
 70
     0
  9
$DIMDSEP
 70
    44
  9
$DIMATFIT
 70
     3
  9
$DIMFRAC
 70
     0
  9
$DIMLDRBLK
  1

  9
$DIMLUNIT
 70
     2
  9
$DIMLWD
 70
    -2
  9
$DIMLWE
 70
    -2
  9
$DIMTMOVE
 70
     0
  9
$LUNITS
 70
     2
  9
$LUPREC
 70
     2
  9
$SKETCHINC
 40
1.0
  9
$FILLETRAD
 40
10.0
  9
$AUNITS
 70
     0
  9
$AUPREC
 70
     2
  9
$MENU
  1
.
  9
$ELEVATION
 40
0.0
  9
$PELEVATION
 40
0.0
  9
$THICKNESS
 40
0.0
  9
$LIMCHECK
 70
     0
  9
$CHAMFERA
 40
0.0
  9
$CHAMFERB
 40
0.0
  9
$CHAMFERC
 40
0.0
  9
$CHAMFERD
 40
0.0
  9
$SKPOLY
 70
     0
  9
$TDCREATE
 40
2459327.385896944
  9
$TDUCREATE
 40
2459327.344230278
  9
$TDUPDATE
 40
2459327.38596868
  9
$TDUUPDATE
 40
2459327.344302014
  9
$TDINDWG
 40
0.0000000116
  9
$TDUSRTIMER
 40
0.0000000116
  9
$USRTIMER
 70
     1
  9
$ANGBASE
 50
0.0
  9
$ANGDIR
 70
     0
  9
$PDMODE
 70
     0
  9
$PDSIZE
 40
-1.0
  9
$PLINEWID
 40
0.0
  9
$SPLFRAME
 70
     0
  9
$SPLINETYPE
 70
     6
  9
$SPLINESEGS
 70
     8
  9
$HANDSEED
  5
3C9
  9
$SURFTAB1
 70
     6
  9
$SURFTAB2
 70
     6
  9
$SURFTYPE
 70
     6
  9
$SURFU
 70
     6
  9
$SURFV
 70
     6
  9
$UCSBASE
  2

  9
$UCSNAME
  2

  9
$UCSORG
 10
0.0
 20
0.0
 30
0.0
  9
$UCSXDIR
 10
1.0
 20
0.0
 30
0.0
  9
$UCSYDIR
 10
0.0
 20
1.0
 30
0.0
  9
$UCSORTHOREF
  2

  9
$UCSORTHOVIEW
 70
     0
  9
$UCSORGTOP
 10
0.0
 20
0.0
 30
0.0
  9
$UCSORGBOTTOM
 10
0.0
 20
0.0
 30
0.0
  9
$UCSORGLEFT
 10
0.0
 20
0.0
 30
0.0
  9
$UCSORGRIGHT
 10
0.0
 20
0.0
 30
0.0
  9
$UCSORGFRONT
 10
0.0
 20
0.0
 30
0.0
  9
$UCSORGBACK
 10
0.0
 20
0.0
 30
0.0
  9
$PUCSBASE
  2

  9
$PUCSNAME
  2

  9
$PUCSORG
 10
0.0
 20
0.0
 30
0.0
  9
$PUCSXDIR
 10
1.0
 20
0.0
 30
0.0
  9
$PUCSYDIR
 10
0.0
 20
1.0
 30
0.0
  9
$PUCSORTHOREF
  2

  9
$PUCSORTHOVIEW
 70
     0
  9
$PUCSORGTOP
 10
0.0
 20
0.0
 30
0.0
  9
$PUCSORGBOTTOM
 10
0.0
 20
0.0
 30
0.0
  9
$PUCSORGLEFT
 10
0.0
 20
0.0
 30
0.0
  9
$PUCSORGRIGHT
 10
0.0
 20
0.0
 30
0.0
  9
$PUCSORGFRONT
 10
0.0
 20
0.0
 30
0.0
  9
$PUCSORGBACK
 10
0.0
 20
0.0
 30
0.0
  9
$USERI1
 70
     0
  9
$USERI2
 70
     0
  9
$USERI3
 70
     0
  9
$USERI4
 70
     0
  9
$USERI5
 70
     0
  9
$USERR1
 40
0.0
  9
$USERR2
 40
0.0
  9
$USERR3
 40
0.0
  9
$USERR4
 40
0.0
  9
$USERR5
 40
0.0
  9
$WORLDVIEW
 70
     1
  9
$SHADEDGE
 70
     3
  9
$SHADEDIF
 70
    70
  9
$TILEMODE
 70
     0
  9
$MAXACTVP
 70
    64
  9
$PINSBASE
 10
0.0
 20
0.0
 30
0.0
  9
$PLIMCHECK
 70
     0
  9
$PEXTMIN
 10
-77.5
 20
-28.0
 30
0.0
  9
$PEXTMAX
 10
77.5
 20
28.0
 30
0.0
  9
$PLIMMIN
 10
0.0
 20
0.0
  9
$PLIMMAX
 10
0.0
 20
0.0
  9
$UNITMODE
 70
     0
  9
$VISRETAIN
 70
     1
  9
$PLINEGEN
 70
     0
  9
$PSLTSCALE
 70
     1
  9
$TREEDEPTH
 70
  3020
  9
$CMLSTYLE
  2
Standard
  9
$CMLJUST
 70
     0
  9
$CMLSCALE
 40
20.0
  9
$PROXYGRAPHICS
 70
     1
  9
$MEASUREMENT
 70
     1
  9
$CELWEIGHT
370
    -1
  9
$ENDCAPS
280
     0
  9
$JOINSTYLE
280
     0
  9
$LWDISPLAY
290
     1
  9
$INSUNITS
 70
     4
  9
$HYPERLINKBASE
  1

  9
$STYLESHEET
  1

  9
$XEDIT
290
     1
  9
$CEPSNTYPE
380
     0
  9
$PSTYLEMODE
290
     1
  9
$FINGERPRINTGUID
  2
{7c21fb45-ff77-4aa1-9288-b8b9d64e0ad2}
  9
$VERSIONGUID
  2
{FAEB1C32-E019-11D5-929B-00C0DF256EC4}
  9
$EXTNAMES
290
     1
  9
$PSVPSCALE
 40
0.0
  9
$OLESTARTUP
290
     0
  0
ENDSEC
  0
SECTION
  2
CLASSES
  0
CLASS
  1
ACDBDICTIONARYWDFLT
  2
AcDbDictionaryWithDefault
  3
ObjectDBX Classes
 90
        0
280
     0
281
     0
  0
CLASS
  1
VISUALSTYLE
  2
AcDbVisualStyle
  3
ObjectDBX Classes
 90
     4095
280
     0
281
     0
  0
CLASS
  1
MATERIAL
  2
AcDbMaterial
  3
ObjectDBX Classes
 90
     1153
280
     0
281
     0
  0
CLASS
  1
SCALE
  2
AcDbScale
  3
ObjectDBX Classes
 90
     1153
280
     0
281
     0
  0
CLASS
  1
TABLESTYLE
  2
AcDbTableStyle
  3
ObjectDBX Classes
 90
     4095
280
     0
281
     0
  0
CLASS
  1
MLEADERSTYLE
  2
AcDbMLeaderStyle
  3
ACDB_MLEADERSTYLE_CLASS
 90
     4095
280
     0
281
     0
  0
CLASS
  1
SUN
  2
AcDbSun
  3
SCENEOE
 90
     1153
280
     0
281
     0
  0
CLASS
  1
ACDBPLACEHOLDER
  2
AcDbPlaceHolder
  3
ObjectDBX Classes
 90
        0
280
     0
281
     0
  0
CLASS
  1
LAYOUT
  2
AcDbLayout
  3
ObjectDBX Classes
 90
        0
280
     0
281
     0
  0
ENDSEC
  0
SECTION
  2
TABLES
  0
TABLE
  2
VPORT
  5
8
330
0
100
AcDbSymbolTable
 70
     1
  0
VPORT
  5
29
330
8
100
AcDbSymbolTableRecord
100
AcDbViewportTableRecord
  2
*Active
 70
     0
 10
0.0
 20
0.0
 11
1.0
 21
1.0
 12
0.0
 22
0.0
 13
0.0
 23
0.0
 14
10.0
 24
10.0
 15
10.0
 25
10.0
 16
0.0
 26
0.0
 36
1.0
 17
0.0
 27
0.0
 37
0.0
 40
57.12
 41
2.7678571429
 42
50.0
 43
0.0
 44
0.0
 50
0.0
 51
0.0
 71
     0
 72
   100
 73
     1
 74
     3
 75
     0
 76
     0
 77
     0
 78
     0
281
     0
 65
     1
110
0.0
120
0.0
130
0.0
111
1.0
121
0.0
131
0.0
112
0.0
122
1.0
132
0.0
 79
     0
146
0.0
  0
ENDTAB
  0
TABLE
  2
LTYPE
  5
5
330
0
100
AcDbSymbolTable
 70
     6
  0
LTYPE
  5
14
330
5
100
AcDbSymbolTableRecord
100
AcDbLinetypeTableRecord
  2
ByBlock
 70
     0
  3

 72
    65
 73
     0
 40
0.0
  0
LTYPE
  5
15
330
5
100
AcDbSymbolTableRecord
100
AcDbLinetypeTableRecord
  2
ByLayer
 70
     0
  3

 72
    65
 73
     0
 40
0.0
  0
LTYPE
  5
16
330
5
100
AcDbSymbolTableRecord
100
AcDbLinetypeTableRecord
  2
Continuous
 70
     0
  3
Solid line
 72
    65
 73
     0
 40
0.0
  0
LTYPE
  5
6E
330
5
100
AcDbSymbolTableRecord
100
AcDbLinetypeTableRecord
  2
HIDDEN
 70
     0
  3
Hidden __ __ __ __ __ __ __ __ __ __ __ __ __ __
 72
    65
 73
     2
 40
1.905
 49
1.27
 74
     0
 49
-0.635
 74
     0
  0
LTYPE
  5
6F
330
5
100
AcDbSymbolTableRecord
100
AcDbLinetypeTableRecord
  2
PHANTOM
 70
     0
  3
Phantom ______  __  __  ______  __  __  ______
 72
    65
 73
     6
 40
12.7
 49
6.35
 74
     0
 49
-1.27
 74
     0
 49
1.27
 74
     0
 49
-1.27
 74
     0
 49
1.27
 74
     0
 49
-1.27
 74
     0
  0
LTYPE
  5
70
330
5
100
AcDbSymbolTableRecord
100
AcDbLinetypeTableRecord
  2
CENTER
 70
     0
  3
Center ____ _ ____ _ ____ _ ____ _ ____ _ ____
 72
    65
 73
     4
 40
10.16
 49
6.35
 74
     0
 49
-1.27
 74
     0
 49
1.27
 74
     0
 49
-1.27
 74
     0
  0
LTYPE
  5
71
330
5
100
AcDbSymbolTableRecord
100
AcDbLinetypeTableRecord
  2
CENTERX2
 70
     0
  3
Center (2x) ________  __  ________  __  _____
 72
    65
 73
     4
 40
20.32
 49
12.7
 74
     0
 49
-2.54
 74
     0
 49
2.54
 74
     0
 49
-2.54
 74
     0
  0
LTYPE
  5
72
330
5
100
AcDbSymbolTableRecord
100
AcDbLinetypeTableRecord
  2
DOT2
 70
     0
  3
Dot (.5x) ........................................
 72
    65
 73
     2
 40
0.635
 49
0.0
 74
     0
 49
-0.635
 74
     0
  0
ENDTAB
  0
TABLE
  2
LAYER
  5
2
330
0
100
AcDbSymbolTable
 70
     1
  0
LAYER
  5
10
330
2
100
AcDbSymbolTableRecord
100
AcDbLayerTableRecord
  2
0
 70
     0
 62
     7
  6
Continuous
370
    -3
390
F
  0
ENDTAB
  0
TABLE
  2
STYLE
  5
3
330
0
100
AcDbSymbolTable
 70
     1
  0
STYLE
  5
11
330
3
100
AcDbSymbolTableRecord
100
AcDbTextStyleTableRecord
  2
Standard
 70
     0
 40
0.0
 41
1.0
 50
0.0
 71
     0
 42
3.5
  3
txt
  4

  0
ENDTAB
  0
TABLE
  2
VIEW
  5
6
330
0
100
AcDbSymbolTable
 70
     0
  0
ENDTAB
  0
TABLE
  2
UCS
  5
7
330
0
100
AcDbSymbolTable
 70
     0
  0
ENDTAB
  0
TABLE
  2
APPID
  5
9
330
0
100
AcDbSymbolTable
 70
     1
  0
APPID
  5
12
330
9
100
AcDbSymbolTableRecord
100
AcDbRegAppTableRecord
  2
ACAD
 70
     0
  0
ENDTAB
  0
TABLE
  2
DIMSTYLE
  5
A
330
0
100
AcDbSymbolTable
 70
     1
100
AcDbDimStyleTable
  0
DIMSTYLE
105
27
330
A
100
AcDbSymbolTableRecord
100
AcDbDimStyleTableRecord
  2
ISO-25
 70
     0
 41
2.5
 42
0.625
 43
3.75
 44
1.25
 73
     0
 74
     0
 77
     1
 78
     8
140
2.5
141
2.5
143
0.0393700787
147
0.625
171
     3
172
     1
178
     0
271
     2
272
     2
274
     3
278
    44
283
     0
284
     8
340
11
  0
ENDTAB
  0
TABLE
  2
BLOCK_RECORD
  5
1
330
0
100
AcDbSymbolTable
 70
     3
  0
BLOCK_RECORD
  5
1F
330
1
100
AcDbSymbolTableRecord
100
AcDbBlockTableRecord
  2
*Model_Space
340
22
  0
BLOCK_RECORD
  5
20B
330
1
100
AcDbSymbolTableRecord
100
AcDbBlockTableRecord
  2
*Paper_Space
340
20C
  0
BLOCK_RECORD
  5
1B
330
1
100
AcDbSymbolTableRecord
100
AcDbBlockTableRecord
  2
*Paper_Space0
340
1E
  0
BLOCK_RECORD
  5
23
330
1
100
AcDbSymbolTableRecord
100
AcDbBlockTableRecord
  2
*Paper_Space1
340
26
  0
BLOCK_RECORD
  5
2AD
330
1
100
AcDbSymbolTableRecord
100
AcDbBlockTableRecord
  2
*Paper_Space2
340
2AE
  0
ENDTAB
  0
ENDSEC
  0
SECTION
  2
BLOCKS
  0
BLOCK
  5
20
330
1F
100
AcDbEntity
  8
0
100
AcDbBlockBegin
  2
*Model_Space
 70
     0
 10
0.0
 20
0.0
 30
0.0
  3
*Model_Space
  1

  0
ENDBLK
  5
21
330
1F
100
AcDbEntity
  8
0
100
AcDbBlockEnd
  0
BLOCK
  5
20D
330
20B
100
AcDbEntity
 67
     1
  8
0
100
AcDbBlockBegin
  2
*Paper_Space
 70
     0
 10
0.0
 20
0.0
 30
0.0
  3
*Paper_Space
  1

  0
ENDBLK
  5
20E
330
20B
100
AcDbEntity
 67
     1
  8
0
100
AcDbBlockEnd
  0
BLOCK
  5
1C
330
1B
100
AcDbEntity
  8
0
100
AcDbBlockBegin
  2
*Paper_Space0
 70
     0
 10
0.0
 20
0.0
 30
0.0
  3
*Paper_Space0
  1

  0
SPLINE
  5
D7
330
1B
100
AcDbEntity
  8
0
  6
Continuous
 62
     7
370
    25
100
AcDbSpline
210
0.0
220
0.0
230
1.0
 70
     8
 71
     3
 72
    14
 73
    10
 74
     0
 42
0.000000001
 43
0.00000001
 40
0.0
 40
0.0
 40
0.0
 40
0.0
 40
0.0131215291538576
 40
0.175945738904585
 40
0.3405073289646462
 40
0.506613504425367
 40
0.6734011816177887
 40
0.837887627230521
 40
0.9999999999999999
 40
0.9999999999999999
 40
0.9999999999999999
 40
0.9999999999999999
 10
-75.55656507245084
 20
26.50884152064427
 30
0.0
 10
-75.57369516748015
 20
26.50145128405675
 30
0.0
 10
-75.80339150790604
 20
26.40235607786359
 30
0.0
 10
-76.16879142525814
 20
26.19034343710899
 30
0.0
 10
-76.64160205640829
 20
25.87205918423338
 30
0.0
 10
-77.0149415111777
 20
25.52935214940635
 30
0.0
 10
-77.2897177662433
 20
25.16717189960344
 30
0.0
 10
-77.4665302870818
 20
24.78728633737298
 30
0.0
 10
-77.48889762568298
 20
24.52586606618466
 30
0.0
 10
-77.5
 20
24.39610607298473
 30
0.0
  0
SPLINE
  5
D8
330
1B
100
AcDbEntity
  8
0
  6
Continuous
 62
     7
370
    25
100
AcDbSpline
210
0.0
220
0.0
230
1.0
 70
     8
 71
     3
 72
    13
 73
     9
 74
     0
 42
0.000000001
 43
0.00000001
 40
0.0
 40
0.0
 40
0.0
 40
0.0
 40
0.1075150883128277
 40
0.2959701157244198
 40
0.4865389957790671
 40
0.6826976794350245
 40
0.8831334920449774
 40
1.0
 40
1.0
 40
1.0
 40
1.0
 10
77.50000000000003
 20
24.39610607298474
 30
0.0
 10
77.49662862051437
 20
24.46662097934205
 30
0.0
 10
77.48734780614525
 20
24.66073610608727
 30
0.0
 10
77.38871928507618
 20
24.97448220938256
 30
0.0
 10
77.18165894205768
 20
25.32857804192603
 30
0.0
 10
76.87109651904848
 20
25.67014102540262
 30
0.0
 10
76.53285580666169
 20
25.95537664102594
 30
0.0
 10
76.26115707168186
 20
26.11828757093508
 30
0.0
 10
76.1610869482855
 20
26.17828975261559
 30
0.0
  0
SPLINE
  5
DA
330
1B
100
AcDbEntity
  8
0
  6
Continuous
 62
     7
370
    25
100
AcDbSpline
210
0.0
220
0.0
230
1.0
 70
     8
 71
     3
 72
    13
 73
     9
 74
     0
 42
0.000000001
 43
0.00000001
 40
0.0
 40
0.0
 40
0.0
 40
0.0
 40
0.1048795930412238
 40
0.2804232452384959
 40
0.4585909422186213
 40
0.6395852477779842
 40
0.8241764155866416
 40
1.0
 40
1.0
 40
1.0
 40
1.0
 10
71.8655922025036
 20
18.28277561995247
 30
0.0
 10
71.96732170315703
 20
18.2206110567662
 30
0.0
 10
72.23932234582263
 20
18.05439770637041
 30
0.0
 10
72.58530565650894
 20
17.76018411909585
 30
0.0
 10
72.90973008919143
 20
17.40834249370487
 30
0.0
 10
73.13718349787413
 20
17.04367918410721
 30
0.0
 10
73.2754164741022
 20
16.68071730247521
 30
0.0
 10
73.29193947290679
 20
16.44036933279361
 30
0.0
 10
73.3
 20
16.32311874503226
 30
0.0
  0
SPLINE
  5
DB
330
1B
100
AcDbEntity
  8
0
  6
Continuous
 62
     7
370
    25
100
AcDbSpline
210
0.0
220
0.0
230
1.0
 70
     8
 71
     3
 72
    12
 73
     8
 74
     0
 42
0.000000001
 43
0.00000001
 40
0.0
 40
0.0
 40
0.0
 40
0.0
 40
0.1152071352723535
 40
0.3480488082908936
 40
0.5760066669903585
 40
0.7966520813922259
 40
1.0
 40
1.0
 40
1.0
 40
1.0
 10
-73.3
 20
16.32311874503226
 30
0.0
 10
-73.29744763128448
 20
16.38731581361152
 30
0.0
 10
-73.28973674699198
 20
16.58125964497192
 30
0.0
 10
-73.20219015227624
 20
16.903533454524
 30
0.0
 10
-72.99694004859384
 20
17.28572686870728
 30
0.0
 10
-72.70643717312261
 20
17.64894229277729
 30
0.0
 10
-72.4367702563716
 20
17.87493241744714
 30
0.0
 10
-72.30743754764845
 20
17.983317662921
 30
0.0
  0
LWPOLYLINE
  5
DE
330
1B
100
AcDbEntity
  8
0
  6
Continuous
 62
     7
370
    25
100
AcDbPolyline
 90
       16
 70
   128
 43
0.0
 10
-77.5
 20
16.90157289
 10
-77.4452189537
 20
17.3953697598
 10
-77.2814760073
 20
17.8837564878
 10
-77.010565163
 20
18.3613822068
 10
-76.6354545764
 20
18.8230139494
 10
-76.1602540378
 20
19.2635939817
 10
-75.5901699437
 20
19.6782952166
 10
-74.9314482548
 20
20.0625741007
 10
-74.1913060636
 20
20.412220394
 10
-73.3778525229
 20
20.7234032986
 10
-72.5
 20
20.9927134295
 10
-71.5673664308
 20
21.2172001684
 10
-70.5901699437
 20
21.3944039919
 10
-69.5791169082
 20
21.5223834176
 10
-68.5452846327
 20
21.5997362761
 10
-67.5
 20
21.6256150735
  0
LWPOLYLINE
  5
E3
330
1B
100
AcDbEntity
  8
0
  6
Continuous
 62
     7
370
    25
100
AcDbPolyline
 90
       16
 70
   128
 43
0.0
 10
-67.5
 20
27.720949098
 10
-68.5452846327
 20
27.70273526
 10
-69.5791169082
 20
27.6482933007
 10
-70.5901699437
 20
27.5582196975
 10
-71.5673664308
 20
27.4335013158
 10
-72.5
 20
27.2755045962
 10
-73.3778525229
 20
27.0859605838
 10
-74.1913060636
 20
26.8669459625
 10
-74.9314482548
 20
26.6208603023
 10
-75.5901699437
 20
26.3503997693
 10
-76.1602540378
 20
26.0585275855
 10
-76.6354545764
 20
25.7484415637
 10
-77.010565163
 20
25.4235390713
 10
-77.2814760073
 20
25.087379808
 10
-77.4452189537
 20
24.743646805
 10
-77.5
 20
24.396106073
  0
LWPOLYLINE
  5
E9
330
1B
100
AcDbEntity
  8
0
  6
Continuous
 62
     7
370
    25
100
AcDbPolyline
 90
       16
 70
   128
 43
0.0
 10
77.5
 20
24.396106073
 10
77.4452189537
 20
24.743646805
 10
77.2814760073
 20
25.087379808
 10
77.010565163
 20
25.4235390713
 10
76.6354545764
 20
25.7484415637
 10
76.1602540378
 20
26.0585275855
 10
75.5901699437
 20
26.3503997693
 10
74.9314482548
 20
26.6208603023
 10
74.1913060636
 20
26.8669459625
 10
73.3778525229
 20
27.0859605838
 10
72.5
 20
27.2755045962
 10
71.5673664308
 20
27.4335013158
 10
70.5901699437
 20
27.5582196975
 10
69.5791169082
 20
27.6482933007
 10
68.5452846327
 20
27.70273526
 10
67.5
 20
27.720949098
  0
LWPOLYLINE
  5
ED
330
1B
100
AcDbEntity
  8
0
  6
Continuous
 62
     7
370
    25
100
AcDbPolyline
 90
       16
 70
   128
 43
0.0
 10
67.5
 20
21.6256150735
 10
68.5452846327
 20
21.5997362761
 10
69.5791169082
 20
21.5223834176
 10
70.5901699437
 20
21.3944039919
 10
71.5673664308
 20
21.2172001684
 10
72.5
 20
20.9927134295
 10
73.3778525229
 20
20.7234032986
 10
74.1913060636
 20
20.412220394
 10
74.9314482548
 20
20.0625741007
 10
75.5901699437
 20
19.6782952166
 10
76.1602540378
 20
19.2635939817
 10
76.6354545764
 20
18.8230139494
 10
77.010565163
 20
18.3613822068
 10
77.2814760073
 20
17.8837564878
 10
77.4452189537
 20
17.3953697598
 10
77.5
 20
16.90157289
  0
SPLINE
  5
115
330
1B
100
AcDbEntity
  8
0
  6
Continuous
 62
     7
370
    25
100
AcDbSpline
210
0.0
220
0.0
230
1.0
 70
     8
 71
     3
 72
    15
 73
    11
 74
     0
 42
0.000000001
 43
0.00000001
 40
0.0
 40
0.0
 40
0.0
 40
0.0
 40
0.0823712459040866
 40
0.204236410298076
 40
0.3296325536359586
 40
0.4521259355780576
 40
0.5781193874060937
 40
0.7016599619838436
 40
0.8287682749538932
 40
1.0
 40
1.0
 40
1.0
 40
1.0
 10
-73.3
 20
16.01493285852872
 30
0.0
 10
-73.24161006894981
 20
16.00807614382159
 30
0.0
 10
-73.0968344280772
 20
15.99107517724822
 30
0.0
 10
-72.64302695093691
 20
15.99819804141603
 30
0.0
 10
-71.98714400861724
 20
16.02490918526436
 30
0.0
 10
-71.15764608863778
 20
16.06844804863627
 30
0.0
 10
-70.19923915171445
 20
16.11764333232299
 30
0.0
 10
-69.11867846046592
 20
16.16380005314727
 30
0.0
 10
-67.81896354404682
 20
16.20471292641974
 30
0.0
 10
-66.85389776044688
 20
16.21111628437132
 30
0.0
 10
-66.29999999999998
 20
16.21479148008232
 30
0.0
  0
SPLINE
  5
116
330
1B
100
AcDbEntity
  8
0
  6
Continuous
 62
     7
370
    25
100
AcDbSpline
210
0.0
220
0.0
230
1.0
 70
     8
 71
     3
 72
    12
 73
     8
 74
     0
 42
0.000000001
 43
0.00000001
 40
0.0
 40
0.0
 40
0.0
 40
0.0
 40
0.1653564335095162
 40
0.3307177464862158
 40
0.5775003566353508
 40
0.8243320837368242
 40
1.0
 40
1.0
 40
1.0
 40
1.0
 10
-65.49999999999999
 20
17.92089489714576
 30
0.0
 10
-65.95364115675122
 20
17.91619744695218
 30
0.0
 10
-66.86093685665233
 20
17.90680240794897
 30
0.0
 10
-68.42374065171187
 20
17.82293791956969
 30
0.0
 10
-70.13735197480335
 20
17.65876084972484
 30
0.0
 10
-71.77660447252731
 20
17.42954598531659
 30
0.0
 10
-72.66474168930986
 20
17.2569753602115
 30
0.0
 10
-73.0340135139805
 20
17.18522353131283
 30
0.0
  0
SPLINE
  5
118
330
1B
100
AcDbEntity
  8
0
  6
Continuous
 62
     7
370
    25
100
AcDbSpline
210
0.0
220
0.0
230
1.0
 70
     8
 71
     3
 72
    12
 73
     8
 74
     0
 42
0.000000001
 43
0.00000001
 40
0.0
 40
0.0
 40
0.0
 40
0.0
 40
0.0573659139554431
 40
0.2927861306000576
 40
0.5281698427524688
 40
0.7640983112523623
 40
1.0
 40
1.0
 40
1.0
 40
1.0
 10
73.03182814987507
 20
17.18713220102897
 30
0.0
 10
72.91814433236817
 20
17.2109379305532
 30
0.0
 10
72.33792094282131
 20
17.33243843412617
 30
0.0
 10
71.08775727690727
 20
17.53069474498396
 30
0.0
 10
69.32878548686955
 20
17.74748033819413
 30
0.0
 10
67.44059356152886
 20
17.89167178444828
 30
0.0
 10
66.14684004390638
 20
17.9111542281695
 30
0.0
 10
65.50000000000003
 20
17.92089489714576
 30
0.0
  0
SPLINE
  5
119
330
1B
100
AcDbEntity
  8
0
  6
Continuous
 62
     7
370
    25
100
AcDbSpline
210
0.0
220
0.0
230
1.0
 70
     8
 71
     3
 72
    15
 73
    11
 74
     0
 42
0.000000001
 43
0.00000001
 40
0.0
 40
0.0
 40
0.0
 40
0.0
 40
0.1241873020744329
 40
0.2519574734167638
 40
0.3760227611788729
 40
0.5036445237140268
 40
0.6279074140890305
 40
0.755781416864272
 40
0.879686499522738
 40
1.0
 40
1.0
 40
1.0
 40
1.0
 10
66.30000000000001
 20
16.21479148008232
 30
0.0
 10
66.69811030743568
 20
16.2128786328848
 30
0.0
 10
67.50581661498182
 20
16.20899775183763
 30
0.0
 10
68.6777959022093
 20
16.1791308976704
 30
0.0
 10
69.79275153316173
 20
16.13650430569938
 30
0.0
 10
70.79991067039596
 20
16.0873294177726
 30
0.0
 10
71.69090864307296
 20
16.04006130091645
 30
0.0
 10
72.41782890575736
 20
16.0058166445356
 30
0.0
 10
72.98252970445554
 20
15.99003491982529
 30
0.0
 10
73.19521920217302
 20
16.00361155932897
 30
0.0
 10
73.30000000000001
 20
16.01030004716814
 30
0.0
  0
SPLINE
  5
132
330
1B
100
AcDbEntity
  8
0
  6
Continuous
 62
     7
370
    25
100
AcDbSpline
210
0.0
220
0.0
230
1.0
 70
     8
 71
     3
 72
    27
 73
    23
 74
     0
 42
0.000000001
 43
0.00000001
 40
0.0
 40
0.0
 40
0.0
 40
0.0
 40
0.1250000000000004
 40
0.1250000000000004
 40
0.1875000000000006
 40
0.1875000000000006
 40
0.2500000000000008
 40
0.3125000000000011
 40
0.3125000000000011
 40
0.3750000000000012
 40
0.3750000000000012
 40
0.5000000000000017
 40
0.5000000000000017
 40
0.6250000000000021
 40
0.6250000000000021
 40
0.7500000000000024
 40
0.7500000000000024
 40
0.8125000000000009
 40
0.8125000000000009
 40
0.8749999999999993
 40
0.8749999999999993
 40
1.0
 40
1.0
 40
1.0
 40
1.0
 10
73.30000000000001
 20
15.88103724630531
 30
0.0
 10
73.3
 20
15.8517937988478
 30
0.0
 10
73.2547922588524
 20
15.83041375741137
 30
0.0
 10
73.11939653582172
 20
15.80940404580034
 30
0.0
 10
73.06289488974977
 20
15.80427998056369
 30
0.0
 10
72.92946007419388
 20
15.79762065481247
 30
0.0
 10
72.77521729850864
 20
15.79447889260187
 30
0.0
 10
72.57993101314281
 20
15.79759451943184
 30
0.0
 10
72.36381489650842
 20
15.80346583872798
 30
0.0
 10
72.24459180129394
 20
15.80781420276738
 30
0.0
 10
71.86054911375456
 20
15.82415204279362
 30
0.0
 10
71.57076363674241
 20
15.83931174397365
 30
0.0
 10
70.92530592472639
 20
15.87377782070438
 30
0.0
 10
70.56532319639908
 20
15.89330503683615
 30
0.0
 10
69.8048352934976
 20
15.93089137526427
 30
0.0
 10
69.40305249087518
 20
15.94903991493523
 30
0.0
 10
68.76768269110525
 20
15.97257128822366
 30
0.0
 10
68.54923769927643
 20
15.97983163860692
 30
0.0
 10
68.10962712891866
 20
15.99247304435392
 30
0.0
 10
67.88790400352467
 20
15.99788444625257
 30
0.0
 10
67.21710159164162
 20
16.01106702506071
 30
0.0
 10
66.76244405337454
 20
16.01576966000037
 30
0.0
 10
66.30000000000003
 20
16.01576966000036
 30
0.0
  0
SPLINE
  5
136
330
1B
100
AcDbEntity
  8
0
  6
Continuous
 62
     7
370
    25
100
AcDbSpline
210
0.0
220
0.0
230
1.0
 70
     8
 71
     3
 72
    27
 73
    23
 74
     0
 42
0.000000001
 43
0.00000001
 40
0.0
 40
0.0
 40
0.0
 40
0.0
 40
0.1250000000000007
 40
0.1250000000000007
 40
0.1875000000000011
 40
0.1875000000000011
 40
0.2500000000000014
 40
0.3125000000000017
 40
0.3125000000000017
 40
0.3750000000000021
 40
0.3750000000000021
 40
0.5000000000000022
 40
0.5000000000000022
 40
0.6250000000000023
 40
0.6250000000000023
 40
0.7500000000000024
 40
0.7500000000000024
 40
0.8125000000000019
 40
0.8125000000000019
 40
0.8750000000000012
 40
0.8750000000000012
 40
1.0
 40
1.0
 40
1.0
 40
1.0
 10
-66.29999999999998
 20
16.01576966000037
 30
0.0
 10
-66.762412050376
 20
16.01576966000037
 30
0.0
 10
-67.21951163718965
 20
16.01106404077963
 30
0.0
 10
-67.89728404980363
 20
15.99767739716265
 30
0.0
 10
-68.1218868735666
 20
15.99215321850455
 30
0.0
 10
-68.5600865280921
 20
15.97948518389951
 30
0.0
 10
-68.98946213800662
 20
15.96516111075315
 30
0.0
 10
-69.4015038118538
 20
15.94826450983841
 30
0.0
 10
-69.80478520985079
 20
15.93048780137578
 30
0.0
 10
-70.0029876910916
 20
15.92111128454967
 30
0.0
 10
-70.57686610636401
 20
15.89270677075798
 30
0.0
 10
-70.92893817083775
 20
15.87358163655604
 30
0.0
 10
-71.57384984139203
 20
15.83914920031367
 30
0.0
 10
-71.86910737172963
 20
15.82374070000181
 30
0.0
 10
-72.37697804210671
 20
15.80223073882138
 30
0.0
 10
-72.5918183880227
 20
15.79597404699632
 30
0.0
 10
-72.85504332796405
 20
15.79607890876672
 30
0.0
 10
-72.9331828234133
 20
15.79772634200831
 30
0.0
 10
-73.06634344835095
 20
15.80453661073197
 30
0.0
 10
-73.12168364971036
 20
15.80967952601497
 30
0.0
 10
-73.25480298693803
 20
15.83057841939354
 30
0.0
 10
-73.3
 20
15.85179603879144
 30
0.0
 10
-73.3
 20
15.88103724630531
 30
0.0
  0
LINE
  5
149
330
1B
100
AcDbEntity
  8
0
  6
Continuous
 62
     7
370
    25
100
AcDbLine
 10
67.5
 20
27.920949098
 30
0.0
 11
-67.5
 21
27.920949098
 31
0.0
  0
LINE
  5
14A
330
1B
100
AcDbEntity
  8
0
  6
Continuous
 62
     7
370
    25
100
AcDbLine
 10
-66.3
 20
19.5938436146
 30
0.0
 11
66.3
 21
19.5938436146
 31
0.0
  0
LINE
  5
14B
330
1B
100
AcDbEntity
  8
0
  6
Continuous
 62
     7
370
    25
100
AcDbLine
 10
65.5
 20
17.9295022911
 30
0.0
 11
-65.5
 21
17.9295022911
 31
0.0
  0
LINE
  5
14C
330
1B
100
AcDbEntity
  8
0
  6
Continuous
 62
     7
370
    25
100
AcDbLine
 10
-67.5
 20
27.920949098
 30
0.0
 11
-67.5
 21
21.4454544494
 31
0.0
  0
LINE
  5
14D
330
1B
100
AcDbEntity
  8
0
  6
Continuous
 62
     7
370
    25
100
AcDbLine
 10
-77.5
 20
0.2
 30
0.0
 11
-77.5
 21
24.396106073
 31
0.0
  0
LINE
  5
14E
330
1B
100
AcDbEntity
  8
0
  6
Continuous
 62
     7
370
    25
100
AcDbLine
 10
-67.5
 20
21.6256150735
 30
0.0
 11
67.5
 21
21.6256150735
 31
0.0
  0
LINE
  5
14F
330
1B
100
AcDbEntity
  8
0
  6
Continuous
 62
     7
370
    25
100
AcDbLine
 10
67.5
 20
21.4454544494
 30
0.0
 11
67.5
 21
27.920949098
 31
0.0
  0
LINE
  5
150
330
1B
100
AcDbEntity
  8
0
  6
Continuous
 62
     7
370
    25
100
AcDbLine
 10
67.5
 20
21.4454544494
 30
0.0
 11
-67.5
 21
21.4454544494
 31
0.0
  0
LINE
  5
151
330
1B
100
AcDbEntity
  8
0
  6
Continuous
 62
     7
370
    25
100
AcDbLine
 10
67.5
 20
27.720949098
 30
0.0
 11
-67.5
 21
27.720949098
 31
0.0
  0
LINE
  5
152
330
1B
100
AcDbEntity
  8
0
  6
Continuous
 62
     7
370
    25
100
AcDbLine
 10
77.5
 20
24.396106073
 30
0.0
 11
77.5
 21
0.2
 31
0.0
  0
LINE
  5
153
330
1B
100
AcDbEntity
  8
0
  6
Continuous
 62
     7
370
    25
100
AcDbLine
 10
-66.3
 20
19.6136829905
 30
0.0
 11
66.3
 21
19.6136829905
 31
0.0
  0
LINE
  5
154
330
1B
100
AcDbEntity
  8
0
  6
Continuous
 62
     7
370
    25
100
AcDbLine
 10
-73.5
 20
0.0
 30
0.0
 11
-73.5
 21
16.1429581209
 31
0.0
  0
LINE
  5
155
330
1B
100
AcDbEntity
  8
0
  6
Continuous
 62
     7
370
    25
100
AcDbLine
 10
-77.3
 20
8.3672429835
 30
0.0
 11
-73.5
 21
8.3672429835
 31
0.0
  0
LINE
  5
156
330
1B
100
AcDbEntity
  8
0
  6
Continuous
 62
     7
370
    25
100
AcDbLine
 10
-77.3
 20
16.7214122658
 30
0.0
 11
-77.3
 21
0.0
 31
0.0
  0
LINE
  5
157
330
1B
100
AcDbEntity
  8
0
  6
Continuous
 62
     7
370
    25
100
AcDbLine
 10
77.3
 20
0.0
 30
0.0
 11
77.3
 21
16.7214122658
 31
0.0
  0
LINE
  5
158
330
1B
100
AcDbEntity
  8
0
  6
Continuous
 62
     7
370
    25
100
AcDbLine
 10
73.5
 20
8.3672429835
 30
0.0
 11
77.3
 21
8.3672429835
 31
0.0
  0
LINE
  5
159
330
1B
100
AcDbEntity
  8
0
  6
Continuous
 62
     7
370
    25
100
AcDbLine
 10
73.5
 20
16.1429581209
 30
0.0
 11
73.5
 21
0.0
 31
0.0
  0
LINE
  5
15A
330
1B
100
AcDbEntity
  8
0
  6
Continuous
 62
     7
370
    25
100
AcDbLine
 10
66.3
 20
19.6136829905
 30
0.0
 11
66.3
 21
19.5938436146
 31
0.0
  0
LINE
  5
15B
330
1B
100
AcDbEntity
  8
0
  6
Continuous
 62
     7
370
    25
100
AcDbLine
 10
-66.3
 20
19.6136829905
 30
0.0
 11
-66.3
 21
19.5938436146
 31
0.0
  0
LINE
  5
15C
330
1B
100
AcDbEntity
  8
0
  6
Continuous
 62
     7
370
    25
100
AcDbLine
 10
73.3
 20
0.2
 30
0.0
 11
73.3
 21
16.323118745
 31
0.0
  0
LINE
  5
15D
330
1B
100
AcDbEntity
  8
0
  6
Continuous
 62
     7
370
    25
100
AcDbLine
 10
-73.3
 20
16.323118745
 30
0.0
 11
-73.3
 21
0.2
 31
0.0
  0
LINE
  5
15E
330
1B
100
AcDbEntity
  8
0
  6
Continuous
 62
     7
370
    25
100
AcDbLine
 10
-77.3
 20
4.615909085
 30
0.0
 11
-73.5
 21
4.615909085
 31
0.0
  0
LINE
  5
15F
330
1B
100
AcDbEntity
  8
0
  6
Continuous
 62
     7
370
    25
100
AcDbLine
 10
73.5
 20
4.615909085
 30
0.0
 11
77.3
 21
4.615909085
 31
0.0
  0
LINE
  5
160
330
1B
100
AcDbEntity
  8
0
  6
Continuous
 62
     7
370
    25
100
AcDbLine
 10
-66.3
 20
16.2147914801
 30
0.0
 11
66.3
 21
16.2147914801
 31
0.0
  0
LINE
  5
161
330
1B
100
AcDbEntity
  8
0
  6
Continuous
 62
     7
370
    25
100
AcDbLine
 10
65.5
 20
17.9208948971
 30
0.0
 11
-65.5
 21
17.9208948971
 31
0.0
  0
LINE
  5
162
330
1B
100
AcDbEntity
  8
0
  6
Continuous
 62
     7
370
    25
100
AcDbLine
 10
73.5
 20
0.1931670085
 30
0.0
 11
77.3
 21
0.1931670085
 31
0.0
  0
LINE
  5
163
330
1B
100
AcDbEntity
  8
0
  6
Continuous
 62
     7
370
    25
100
AcDbLine
 10
-77.3
 20
0.1931670085
 30
0.0
 11
-73.5
 21
0.1931670085
 31
0.0
  0
LINE
  5
164
330
1B
100
AcDbEntity
  8
0
  6
Continuous
 62
     7
370
    25
100
AcDbLine
 10
77.3
 20
0.0
 30
0.0
 11
-77.3
 21
0.0
 31
0.0
  0
LINE
  5
165
330
1B
100
AcDbEntity
  8
0
  6
Continuous
 62
     7
370
    25
100
AcDbLine
 10
66.3
 20
0.0
 30
0.0
 11
66.3
 21
16.2147914801
 31
0.0
  0
LINE
  5
166
330
1B
100
AcDbEntity
  8
0
  6
Continuous
 62
     7
370
    25
100
AcDbLine
 10
-66.3
 20
16.2147914801
 30
0.0
 11
-66.3
 21
0.0
 31
0.0
  0
LINE
  5
167
330
1B
100
AcDbEntity
  8
0
  6
Continuous
 62
     7
370
    25
100
AcDbLine
 10
-73.3
 20
0.2
 30
0.0
 11
73.3
 21
0.2
 31
0.0
  0
LINE
  5
168
330
1B
100
AcDbEntity
  8
0
  6
Continuous
 62
     7
370
    25
100
AcDbLine
 10
-65.5
 20
17.9208948971
 30
0.0
 11
-65.5
 21
17.9295022911
 31
0.0
  0
LINE
  5
169
330
1B
100
AcDbEntity
  8
0
  6
Continuous
 62
     7
370
    25
100
AcDbLine
 10
65.5
 20
17.9208948971
 30
0.0
 11
65.5
 21
17.9295022911
 31
0.0
  0
LINE
  5
16A
330
1B
100
AcDbEntity
  8
0
  6
Continuous
 62
     7
370
    25
100
AcDbLine
 10
66.3
 20
16.01576966
 30
0.0
 11
-66.3
 21
16.01576966
 31
0.0
  0
ARC
  5
16B
330
1B
100
AcDbEntity
  8
0
  6
Continuous
 62
     7
370
    25
100
AcDbCircle
 10
-68.1491624456
 20
7.0702732192
 30
0.0
 40
14.38983138470435
100
AcDbArc
 50
87.4143619282
 51
121.1658953894
  0
ARC
  5
16C
330
1B
100
AcDbEntity
  8
0
  6
Continuous
 62
     7
370
    25
100
AcDbCircle
 10
-77.3094276869
 20
16.9120387583
 30
0.0
 40
0.1908594795152651
100
AcDbArc
 50
183.143417418
 51
272.8313321255
  0
ARC
  5
16D
330
1B
100
AcDbEntity
  8
0
  6
Continuous
 62
     7
370
    25
100
AcDbCircle
 10
-68.1567766546
 20
8.1320957024
 30
0.0
 40
19.78915185036207
100
AcDbArc
 50
88.0980770482
 51
111.6830952624
  0
ARC
  5
16E
330
1B
100
AcDbEntity
  8
0
  6
Continuous
 62
     7
370
    25
100
AcDbCircle
 10
68.4132002947
 20
10.1305120844
 30
0.0
 40
17.80326993418122
100
AcDbArc
 50
64.6622152899
 51
92.940217959
  0
ARC
  5
16F
330
1B
100
AcDbEntity
  8
0
  6
Continuous
 62
     7
370
    25
100
AcDbCircle
 10
77.3094276869
 20
16.9120387583
 30
0.0
 40
0.1908594795152628
100
AcDbArc
 50
267.1686678745
 51
356.856582582
  0
ARC
  5
170
330
1B
100
AcDbEntity
  8
0
  6
Continuous
 62
     7
370
    25
100
AcDbCircle
 10
68.2200947024
 20
7.6084295907
 30
0.0
 40
13.85574946806078
100
AcDbArc
 50
55.8788591416
 51
92.9790508932
  0
ARC
  5
171
330
1B
100
AcDbEntity
  8
0
  6
Continuous
 62
     7
370
    25
100
AcDbCircle
 10
-66.8061725391
 20
9.2820534893
 30
0.0
 40
10.34402140314618
100
AcDbArc
 50
87.195178192
 51
122.9223662659
  0
ARC
  5
172
330
1B
100
AcDbEntity
  8
0
  6
Continuous
 62
     7
370
    25
100
AcDbCircle
 10
66.6853981173
 20
8.5198563517
 30
0.0
 40
11.10051896082434
100
AcDbArc
 50
61.5499224496
 51
91.9896478951
  0
ARC
  5
173
330
1B
100
AcDbEntity
  8
0
  6
Continuous
 62
     7
370
    25
100
AcDbCircle
 10
73.4905723131
 20
16.3335846134
 30
0.0
 40
0.190859479515262
100
AcDbArc
 50
183.143417418
 51
272.8313321255
  0
ARC
  5
174
330
1B
100
AcDbEntity
  8
0
  6
Continuous
 62
     7
370
    25
100
AcDbCircle
 10
-73.4905723131
 20
16.3335846134
 30
0.0
 40
0.1908594795152626
100
AcDbArc
 50
267.1686678745
 51
356.856582582
  0
ARC
  5
175
330
1B
100
AcDbEntity
  8
0
  6
Continuous
 62
     7
370
    25
100
AcDbCircle
 10
-77.3094276869
 20
8.557869476
 30
0.0
 40
0.1908594795152778
100
AcDbArc
 50
183.143417418
 51
272.8313321255
  0
ARC
  5
176
330
1B
100
AcDbEntity
  8
0
  6
Continuous
 62
     7
370
    25
100
AcDbCircle
 10
77.3094276869
 20
8.557869476
 30
0.0
 40
0.1908594795152786
100
AcDbArc
 50
267.1686678746
 51
356.856582582
  0
ARC
  5
177
330
1B
100
AcDbEntity
  8
0
  6
Continuous
 62
     7
370
    25
100
AcDbCircle
 10
73.4905723131
 20
8.557869476
 30
0.0
 40
0.1908594795152926
100
AcDbArc
 50
183.143417418
 51
272.8313321255
  0
ARC
  5
178
330
1B
100
AcDbEntity
  8
0
  6
Continuous
 62
     7
370
    25
100
AcDbCircle
 10
-73.4905723131
 20
8.557869476
 30
0.0
 40
0.1908594795152633
100
AcDbArc
 50
267.1686678745
 51
356.856582582
  0
ARC
  5
179
330
1B
100
AcDbEntity
  8
0
  6
Continuous
 62
     7
370
    25
100
AcDbCircle
 10
-77.316674217
 20
4.7996138807
 30
0.0
 40
0.1844599725735332
100
AcDbArc
 50
186.3569992015
 51
275.1863183682
  0
ARC
  5
17A
330
1B
100
AcDbEntity
  8
0
  6
Continuous
 62
     7
370
    25
100
AcDbCircle
 10
-73.483325783
 20
4.7996138807
 30
0.0
 40
0.1844599725735115
100
AcDbArc
 50
264.8136816318
 51
353.6430007985
  0
ARC
  5
17B
330
1B
100
AcDbEntity
  8
0
  6
Continuous
 62
     7
370
    25
100
AcDbCircle
 10
73.483325783
 20
4.7996138807
 30
0.0
 40
0.1844599725735873
100
AcDbArc
 50
186.3569992016
 51
275.1863183682
  0
ARC
  5
17C
330
1B
100
AcDbEntity
  8
0
  6
Continuous
 62
     7
370
    25
100
AcDbCircle
 10
77.316674217
 20
4.7996138807
 30
0.0
 40
0.1844599725735244
100
AcDbArc
 50
264.8136816318
 51
353.6430007985
  0
ARC
  5
17D
330
1B
100
AcDbEntity
  8
0
  6
Continuous
 62
     7
370
    25
100
AcDbCircle
 10
73.4500583622
 20
1.6617795894
 30
0.0
 40
1.469461493244307
100
AcDbArc
 50
264.1388567454
 51
271.9476496861
  0
ARC
  5
17E
330
1B
100
AcDbEntity
  8
0
  6
Continuous
 62
     7
370
    25
100
AcDbCircle
 10
-77.3499416378
 20
1.6617795894
 30
0.0
 40
1.469461493244238
100
AcDbArc
 50
264.1388567454
 51
271.9476496861
  0
ARC
  5
17F
330
1B
100
AcDbEntity
  8
0
  6
Continuous
 62
     7
370
    25
100
AcDbCircle
 10
-73.4500583622
 20
1.6617795894
 30
0.0
 40
1.469461493243306
100
AcDbArc
 50
268.0523503139
 51
275.8611432546
  0
ARC
  5
180
330
1B
100
AcDbEntity
  8
0
  6
Continuous
 62
     7
370
    25
100
AcDbCircle
 10
77.3499416378
 20
1.6617795894
 30
0.0
 40
1.469461493244387
100
AcDbArc
 50
268.0523503139
 51
275.8611432546
  0
ARC
  5
181
330
1B
100
AcDbEntity
  8
0
  6
Continuous
 62
     7
370
    25
100
AcDbCircle
 10
77.3
 20
0.2
 30
0.0
 40
0.2000000000000171
100
AcDbArc
 50
270.0
 51
360.0
  0
ARC
  5
182
330
1B
100
AcDbEntity
  8
0
  6
Continuous
 62
     7
370
    25
100
AcDbCircle
 10
-77.3
 20
0.2
 30
0.0
 40
0.2000000000000171
100
AcDbArc
 50
180.0
 51
270.0
  0
ARC
  5
183
330
1B
100
AcDbEntity
  8
0
  6
Continuous
 62
     7
370
    25
100
AcDbCircle
 10
-73.5
 20
0.2
 30
0.0
 40
0.1999999999999745
100
AcDbArc
 50
270.0
 51
0.0
  0
ARC
  5
184
330
1B
100
AcDbEntity
  8
0
  6
Continuous
 62
     7
370
    25
100
AcDbCircle
 10
73.5
 20
0.2
 30
0.0
 40
0.2000000000000028
100
AcDbArc
 50
180.0
 51
270.0
  0
ARC
  5
185
330
1B
100
AcDbEntity
  8
0
  6
Continuous
 62
     8
370
    25
100
AcDbCircle
 10
-73.8304598137
 20
16.3767983816
 30
0.0
 40
3.486612658960163
100
AcDbArc
 50
120.42576986
 51
174.3276716295
  0
ARC
  5
186
330
1B
100
AcDbEntity
  8
0
  6
Continuous
 62
     8
370
    25
100
AcDbCircle
 10
74.0994437665
 20
16.4876426108
 30
0.0
 40
3.209082182742773
100
AcDbArc
 50
4.1774838706
 51
53.8518631936
  0
ARC
  5
187
330
1B
100
AcDbEntity
  8
0
  6
Continuous
 62
     8
370
    25
100
AcDbCircle
 10
-71.0290472732
 20
15.9155724039
 30
0.0
 40
2.481393084967342
100
AcDbArc
 50
124.322186708
 51
174.7422499406
  0
ARC
  5
188
330
1B
100
AcDbEntity
  8
0
  6
Continuous
 62
     8
370
    25
100
AcDbCircle
 10
70.7399851535
 20
15.7850000966
 30
0.0
 40
2.783130593419231
100
AcDbArc
 50
7.3896837718
 51
63.6886114312
  0
VIEWPORT
  5
3C1
330
1B
100
AcDbEntity
  8
0
100
AcDbViewport
 10
0.0
 20
0.0
 30
0.0
 40
205.6
 41
156.0
 68
     1
 69
     1
 12
0.0
 22
0.0
 13
0.0
 23
0.0
 14
10.0
 24
10.0
 15
10.0
 25
10.0
 16
0.0
 26
0.0
 36
1.0
 17
0.0
 27
0.0
 37
0.0
 42
50.0
 43
0.0
 44
0.0
 45
119.9591439689
 50
0.0
 51
0.0
 72
   100
 90
   557152
  1

281
     0
 71
     1
 74
     0
110
0.0
120
0.0
130
0.0
111
1.0
121
0.0
131
0.0
112
0.0
122
1.0
132
0.0
 79
     0
146
0.0
  0
ENDBLK
  5
1D
330
1B
100
AcDbEntity
  8
0
100
AcDbBlockEnd
  0
BLOCK
  5
24
330
23
100
AcDbEntity
  8
0
100
AcDbBlockBegin
  2
*Paper_Space1
 70
     0
 10
0.0
 20
0.0
 30
0.0
  3
*Paper_Space1
  1

  0
SPLINE
  5
189
330
23
100
AcDbEntity
  8
0
  6
Continuous
 62
     7
370
    25
100
AcDbSpline
210
0.0
220
0.0
230
1.0
 70
     8
 71
     3
 72
    12
 73
     8
 74
     0
 42
0.000000001
 43
0.00000001
 40
0.0
 40
0.0
 40
0.0
 40
0.0
 40
0.1024009749248058
 40
0.2703830743138654
 40
0.4786957923881277
 40
0.8299599068531656
 40
0.9999999999999999
 40
0.9999999999999999
 40
0.9999999999999999
 40
0.9999999999999999
 10
77.48596554111819
 20
15.81537567745032
 30
0.0
 10
77.48686779393196
 20
15.84310481570079
 30
0.0
 10
77.48925013345338
 20
15.91632179096634
 30
0.0
 10
77.4323973263475
 20
15.96896206646288
 30
0.0
 10
77.38821891545302
 20
16.01005956985624
 30
0.0
 10
77.34961744746204
 20
16.03293256447429
 30
0.0
 10
77.30555409822263
 20
16.05175196435946
 30
0.0
 10
77.2911814231135
 20
16.05789051544483
 30
0.0
  0
SPLINE
  5
18A
330
23
100
AcDbEntity
  8
0
  6
Continuous
 62
     7
370
    25
100
AcDbSpline
210
0.0
220
0.0
230
1.0
 70
     8
 71
     3
 72
    11
 73
     7
 74
     0
 42
0.000000001
 43
0.00000001
 40
0.0
 40
0.0
 40
0.0
 40
0.0
 40
0.3220294566485414
 40
0.6688095884608307
 40
0.9179375700079385
 40
1.0
 40
1.0
 40
1.0
 40
1.0
 10
-77.34636798725555
 20
16.02906626494588
 30
0.0
 10
-77.36279687230068
 20
16.02115766087656
 30
0.0
 10
-77.39691734053437
 20
16.00473260992643
 30
0.0
 10
-77.43226466287024
 20
15.97003655601646
 30
0.0
 10
-77.5031498363721
 20
15.89816211839579
 30
0.0
 10
-77.49137156085105
 20
15.83014626717027
 30
0.0
 10
-77.48845313725938
 20
15.81329328521464
 30
0.0
  0
SPLINE
  5
18C
330
23
100
AcDbEntity
  8
0
  6
Continuous
 62
     7
370
    25
100
AcDbSpline
210
0.0
220
0.0
230
1.0
 70
     8
 71
     3
 72
    10
 73
     6
 74
     0
 42
0.000000001
 43
0.00000001
 40
0.0
 40
0.0
 40
0.0
 40
0.0
 40
0.3191359508641867
 40
0.737882980755415
 40
1.0
 40
1.0
 40
1.0
 40
1.0
 10
72.25476297943013
 20
18.01873519464375
 30
0.0
 10
72.36385730137097
 20
17.93327254951804
 30
0.0
 10
72.61609727383166
 20
17.73567202485813
 30
0.0
 10
72.87397863317496
 20
17.45402008789706
 30
0.0
 10
72.9887294726029
 20
17.26008844702138
 30
0.0
 10
73.03290590991789
 20
17.18542921995827
 30
0.0
  0
SPLINE
  5
18D
330
23
100
AcDbEntity
  8
0
  6
Continuous
 62
     7
370
    25
100
AcDbSpline
210
0.0
220
0.0
230
1.0
 70
     8
 71
     3
 72
    11
 73
     7
 74
     0
 42
0.000000001
 43
0.00000001
 40
0.0
 40
0.0
 40
0.0
 40
0.0
 40
0.091169533284919
 40
0.4207787768053549
 40
0.7417005206968664
 40
1.0
 40
1.0
 40
1.0
 40
1.0
 10
-73.03313139780856
 20
17.18686439858441
 30
0.0
 10
-73.01567452521141
 20
17.22107060807349
 30
0.0
 10
-72.93510504949269
 20
17.37894403869622
 30
0.0
 10
-72.68986457515553
 20
17.653929361471
 30
0.0
 10
-72.33424749099068
 20
17.98358415879578
 30
0.0
 10
-72.03213939942795
 20
18.17906013308156
 30
0.0
 10
-71.8974164997498
 20
18.2662312178975
 30
0.0
  0
SPLINE
  5
18E
330
23
100
AcDbEntity
  8
0
  6
Continuous
 62
     7
370
    25
100
AcDbSpline
210
0.0
220
0.0
230
1.0
 70
     8
 71
     3
 72
    14
 73
    10
 74
     0
 42
0.000000001
 43
0.00000001
 40
0.0
 40
0.0
 40
0.0
 40
0.0
 40
0.0892858540326279
 40
0.2457882420530695
 40
0.4040460779971092
 40
0.5669459636873726
 40
0.7333977890863591
 40
0.9005216081338793
 40
1.0
 40
1.0
 40
1.0
 40
1.0
 10
77.5
 20
24.39610607298473
 30
0.0
 10
77.49662124293232
 20
24.46661931831477
 30
0.0
 10
77.48732011937817
 20
24.66072987254426
 30
0.0
 10
77.38893392848311
 20
24.97453053531757
 30
0.0
 10
77.18084895687169
 20
25.32839567764094
 30
0.0
 10
76.87424280881497
 20
25.67084939747391
 30
0.0
 10
76.46523664271868
 20
25.99954056764089
 30
0.0
 10
76.0407225761121
 20
26.27256141502394
 30
0.0
 10
75.71845689944377
 20
26.42627701193829
 30
0.0
 10
75.59820856707341
 20
26.48363355198115
 30
0.0
  0
SPLINE
  5
18F
330
23
100
AcDbEntity
  8
0
  6
Continuous
 62
     7
370
    25
100
AcDbSpline
210
0.0
220
0.0
230
1.0
 70
     8
 71
     3
 72
    11
 73
     7
 74
     0
 42
0.000000001
 43
0.00000001
 40
0.0
 40
0.0
 40
0.0
 40
0.0
 40
0.2434424359488677
 40
0.4961299061314268
 40
0.7498541044671136
 40
1.0
 40
1.0
 40
1.0
 40
1.0
 10
-76.17043533532541
 20
26.18079865413317
 30
0.0
 10
-76.32771873762283
 20
26.0783412998535
 30
0.0
 10
-76.64825857823735
 20
25.86953564375202
 30
0.0
 10
-77.01242138850735
 20
25.52901717248355
 30
0.0
 10
-77.29641676411613
 20
25.16793382885641
 30
0.0
 10
-77.39458120203479
 20
24.91073655067808
 30
0.0
 10
-77.4433148568626
 20
24.78305117251923
 30
0.0
  0
SPLINE
  5
193
330
23
100
AcDbEntity
  8
0
  6
Continuous
 62
     7
370
    25
100
AcDbSpline
210
0.0
220
0.0
230
1.0
 70
     8
 71
     3
 72
    17
 73
    13
 74
     0
 42
0.000000001
 43
0.00000001
 40
0.0
 40
0.0
 40
0.0
 40
0.0
 40
0.0792918705546044
 40
0.1585860809158439
 40
0.2769235073090328
 40
0.3952844863088194
 40
0.5118393987676619
 40
0.6283976820351227
 40
0.7421696086633627
 40
0.8559240515922086
 40
0.9697250417430028
 40
1.0
 40
1.0
 40
1.0
 40
1.0
 10
65.5
 20
17.92089489714576
 30
0.0
 10
65.95369752569789
 20
17.91620369480305
 30
0.0
 10
66.8611059651557
 20
17.90682115168593
 30
0.0
 10
68.42292541196613
 20
17.82284755959928
 30
0.0
 10
70.14213229869884
 20
17.65929069377129
 30
0.0
 10
71.92417440126948
 20
17.40452364046082
 30
0.0
 10
73.50602380037253
 20
17.1064790231524
 30
0.0
 10
74.84556511196126
 20
16.80044878992013
 30
0.0
 10
75.92219997532051
 20
16.51321075402698
 30
0.0
 10
76.6921645669356
 20
16.27591408253374
 30
0.0
 10
77.11123712186522
 20
16.12930059147769
 30
0.0
 10
77.16791431008457
 20
16.09170274733543
 30
0.0
 10
77.17982399748507
 20
16.08380223948149
 30
0.0
  0
SPLINE
  5
194
330
23
100
AcDbEntity
  8
0
  6
Continuous
 62
     7
370
    25
100
AcDbSpline
210
0.0
220
0.0
230
1.0
 70
     8
 71
     3
 72
    17
 73
    13
 74
     0
 42
0.000000001
 43
0.00000001
 40
0.0
 40
0.0
 40
0.0
 40
0.0
 40
0.019864460804498
 40
0.1003429172075268
 40
0.2159186918181153
 40
0.3315165850092718
 40
0.4446930109236455
 40
0.5578724254979472
 40
0.6682925460036587
 40
0.7786955446560072
 40
0.889354052637132
 40
1.0
 40
1.0
 40
1.0
 40
1.0
 10
-77.23580843579103
 20
16.05903857559327
 30
0.0
 10
-77.22998789091913
 20
16.06376217058287
 30
0.0
 10
-77.20058611364814
 20
16.08762283841719
 30
0.0
 10
-76.9409522145024
 20
16.18893401948895
 30
0.0
 10
-76.36928540900655
 20
16.38092701147093
 30
0.0
 10
-75.40877500786647
 20
16.65548832768955
 30
0.0
 10
-74.17866402062427
 20
16.95924408939926
 30
0.0
 10
-72.73257109611643
 20
17.26034922559341
 30
0.0
 10
-71.09854887516059
 20
17.53150182159896
 30
0.0
 10
-69.32590046724202
 20
17.74726457479925
 30
0.0
 10
-67.44131541541198
 20
17.89172577009294
 30
0.0
 10
-66.14708065276272
 20
17.91117222270346
 30
0.0
 10
-65.50000000000003
 20
17.92089489714576
 30
0.0
  0
SPLINE
  5
196
330
23
100
AcDbEntity
  8
0
  6
Continuous
 62
     7
370
    25
100
AcDbSpline
210
0.0
220
0.0
230
1.0
 70
     8
 71
     3
 72
    30
 73
    26
 74
     0
 42
0.000000001
 43
0.00000001
 40
0.0
 40
0.0
 40
0.0
 40
0.0
 40
0.1250000000000002
 40
0.1250000000000002
 40
0.1875000000000003
 40
0.1875000000000003
 40
0.2500000000000004
 40
0.2500000000000004
 40
0.3749999999999999
 40
0.3749999999999999
 40
0.4374999999999999
 40
0.4374999999999999
 40
0.4999999999999999
 40
0.4999999999999999
 40
0.6249999999999994
 40
0.6249999999999994
 40
0.6874999999999992
 40
0.6874999999999992
 40
0.7499999999999989
 40
0.7499999999999989
 40
0.8124999999999987
 40
0.8124999999999987
 40
0.8749999999999984
 40
0.8749999999999984
 40
1.0
 40
1.0
 40
1.0
 40
1.0
 10
77.49999999999999
 20
15.81309961862085
 30
0.0
 10
77.5
 20
15.83470465559172
 30
0.0
 10
77.42137553294383
 20
15.87642133374878
 30
0.0
 10
77.19125117195556
 20
15.96623193662575
 30
0.0
 10
77.09570156929422
 20
16.00071305606367
 30
0.0
 10
76.86618414196589
 20
16.07829917238048
 30
0.0
 10
76.73179165611359
 20
16.12150940937913
 30
0.0
 10
76.27984864115888
 20
16.25990725371799
 30
0.0
 10
75.91177254026309
 20
16.36467061929917
 30
0.0
 10
75.26038726611577
 20
16.53352694632328
 30
0.0
 10
75.02526079560525
 20
16.592075200556
 30
0.0
 10
74.52727137801838
 20
16.71019089613909
 30
0.0
 10
74.26520659803782
 20
16.76959572513631
 30
0.0
 10
73.44065045779064
 20
16.94671331645078
 30
0.0
 10
72.84019807057022
 20
17.06338360556905
 30
0.0
 10
71.85957920769583
 20
17.227361800925
 30
0.0
 10
71.52125428816649
 20
17.27979048646316
 30
0.0
 10
70.83185507703227
 20
17.37737771390201
 30
0.0
 10
70.47934003434314
 20
17.42278304101839
 30
0.0
 10
69.75866146401599
 20
17.50565032437668
 30
0.0
 10
69.39049860305036
 20
17.54311397330811
 30
0.0
 10
68.63805216688654
 20
17.60887771931252
 30
0.0
 10
68.25175706528404
 20
17.63727973541355
 30
0.0
 10
67.08501866859497
 20
17.70580762569247
 30
0.0
 10
66.2974698546871
 20
17.7295022911066
 30
0.0
 10
65.49999999999999
 20
17.7295022911066
 30
0.0
  0
SPLINE
  5
197
330
23
100
AcDbEntity
  8
0
  6
Continuous
 62
     7
370
    25
100
AcDbSpline
210
0.0
220
0.0
230
1.0
 70
     8
 71
     3
 72
    28
 73
    24
 74
     0
 42
0.000000001
 43
0.00000001
 40
0.0
 40
0.0
 40
0.0
 40
0.0
 40
0.1249999999999963
 40
0.1249999999999963
 40
0.1874999999999955
 40
0.1874999999999955
 40
0.2499999999999947
 40
0.2499999999999947
 40
0.3749999999999953
 40
0.3749999999999953
 40
0.4374999999999963
 40
0.4374999999999963
 40
0.4999999999999973
 40
0.4999999999999973
 40
0.6249999999999978
 40
0.6249999999999978
 40
0.7499999999999983
 40
0.7499999999999983
 40
0.8124999999999986
 40
0.8124999999999986
 40
0.8749999999999988
 40
0.8749999999999988
 40
1.0
 40
1.0
 40
1.0
 40
1.0
 10
-65.50000000000003
 20
17.72950229110659
 30
0.0
 10
-66.29743737423009
 20
17.7295022911066
 30
0.0
 10
-67.08068535614602
 20
17.70582310232468
 30
0.0
 10
-68.23534708803295
 20
17.63836022657426
 30
0.0
 10
-68.61684198302308
 20
17.61054417781211
 30
0.0
 10
-69.37294311366809
 20
17.54482626742145
 30
0.0
 10
-69.74746678945554
 20
17.50685683566669
 30
0.0
 10
-70.83572013527936
 20
17.38196316885148
 30
0.0
 10
-71.52322580988975
 20
17.28339247438469
 30
0.0
 10
-72.498992523604
 20
17.12054359771297
 30
0.0
 10
-72.8165318730277
 20
17.06343296355264
 30
0.0
 10
-73.42261533599073
 20
16.94741650936002
 30
0.0
 10
-73.71138101231163
 20
16.88852866588935
 30
0.0
 10
-74.53619359262393
 20
16.71144761174979
 30
0.0
 10
-75.03118374201212
 20
16.5928256044206
 30
0.0
 10
-75.90814310338222
 20
16.3657263587963
 30
0.0
 10
-76.27757930257118
 20
16.26053644761313
 30
0.0
 10
-76.72745801594677
 20
16.12286876871246
 30
0.0
 10
-76.8601807231177
 20
16.080254172191
 30
0.0
 10
-77.09029001753882
 20
16.00261316619513
 30
0.0
 10
-77.1879492701797
 20
15.96746529530551
 30
0.0
 10
-77.42137669953235
 20
15.87652910912529
 30
0.0
 10
-77.50000000000004
 20
15.8347023557169
 30
0.0
 10
-77.50000000000003
 20
15.81309961862085
 30
0.0
  0
LWPOLYLINE
  5
1C1
330
23
100
AcDbEntity
  8
0
  6
Continuous
 62
     7
370
    25
100
AcDbPolyline
 90
       13
 70
   128
 43
0.0
 10
-66.3
 20
26.4317242515
 10
-67.2136833455
 20
26.4108262567
 10
-68.1117333157
 20
26.3484898426
 10
-68.9787840266
 20
26.2457816027
 10
-69.8
 20
26.1044589033
 10
-70.5613300031
 20
25.9269398151
 10
-71.2497474683
 20
25.7162617388
 10
-71.853473382
 20
25.4760294348
 10
-72.3621778265
 20
25.2103533444
 10
-72.7671567276
 20
24.9237792591
 10
-73.061480784
 20
24.6212105411
 10
-73.2401140296
 20
24.3078242249
 10
-73.3
 20
23.9889824373
  0
LWPOLYLINE
  5
1C3
330
23
100
AcDbEntity
  8
0
  6
Continuous
 62
     7
370
    25
100
AcDbPolyline
 90
       13
 70
   128
 43
0.0
 10
73.3
 20
23.9889824373
 10
73.2401140296
 20
24.3078242249
 10
73.061480784
 20
24.6212105411
 10
72.7671567276
 20
24.9237792591
 10
72.3621778265
 20
25.2103533444
 10
71.853473382
 20
25.4760294348
 10
71.2497474683
 20
25.7162617388
 10
70.5613300031
 20
25.9269398151
 10
69.8
 20
26.1044589033
 10
68.9787840266
 20
26.2457816027
 10
68.1117333157
 20
26.3484898426
 10
67.2136833455
 20
26.4108262567
 10
66.3
 20
26.4317242515
  0
LWPOLYLINE
  5
1D9
330
23
100
AcDbEntity
  8
0
  6
Continuous
 62
     8
370
    25
100
AcDbPolyline
 90
       12
 70
   128
 43
0.0
 10
66.3
 20
19.7938436146
 10
67.2136833455
 20
19.7641510822
 10
68.1117333157
 20
19.6755815325
 10
68.9787840266
 20
19.529650415
 10
69.8
 20
19.3288546516
 10
70.5613300031
 20
19.0766299135
 10
71.2497474683
 20
18.7772918359
 10
71.853473382
 20
18.4359621763
 10
72.3621778265
 20
18.0584811798
 10
72.7671567276
 20
17.6513076509
 10
73.061480784
 20
17.2214084416
 10
73.0769111277
 20
17.1923533952
  0
LWPOLYLINE
  5
1DA
330
23
100
AcDbEntity
  8
0
  6
Continuous
 62
     8
370
    25
100
AcDbPolyline
 90
       12
 70
   128
 43
0.0
 10
-73.084224511
 20
17.1782137539
 10
-73.061480784
 20
17.2214084416
 10
-72.7671567276
 20
17.6513076509
 10
-72.3621778265
 20
18.0584811798
 10
-71.853473382
 20
18.4359621763
 10
-71.2497474683
 20
18.7772918359
 10
-70.5613300031
 20
19.0766299135
 10
-69.8
 20
19.3288546516
 10
-68.9787840266
 20
19.529650415
 10
-68.1117333157
 20
19.6755815325
 10
-67.2136833455
 20
19.7641510822
 10
-66.3
 20
19.7938436146
  0
LINE
  5
1DC
330
23
100
AcDbEntity
  8
0
  6
Continuous
 62
     7
370
    25
100
AcDbLine
 10
65.5
 20
17.9295022911
 30
0.0
 11
-65.5
 21
17.9295022911
 31
0.0
  0
LINE
  5
1DD
330
23
100
AcDbEntity
  8
0
  6
Continuous
 62
     7
370
    25
100
AcDbLine
 10
-66.3
 20
19.5938436146
 30
0.0
 11
66.3
 21
19.5938436146
 31
0.0
  0
LINE
  5
1DE
330
23
100
AcDbEntity
  8
0
  6
Continuous
 62
     7
370
    25
100
AcDbLine
 10
67.5
 20
27.920949098
 30
0.0
 11
-67.5
 21
27.920949098
 31
0.0
  0
LINE
  5
1DF
330
23
100
AcDbEntity
  8
0
  6
Continuous
 62
     7
370
    25
100
AcDbLine
 10
77.3
 20
18.3672429835
 30
0.0
 11
73.5
 21
18.3672429835
 31
0.0
  0
LINE
  5
1E0
330
23
100
AcDbEntity
  8
0
  6
Continuous
 62
     7
370
    25
100
AcDbLine
 10
-73.5
 20
18.3672429835
 30
0.0
 11
-77.3
 21
18.3672429835
 31
0.0
  0
LINE
  5
1E1
330
23
100
AcDbEntity
  8
0
  6
Continuous
 62
     7
370
    25
100
AcDbLine
 10
77.5
 20
24.396106073
 30
0.0
 11
77.5
 21
0.2
 31
0.0
  0
LINE
  5
1E2
330
23
100
AcDbEntity
  8
0
  6
Continuous
 62
     7
370
    25
100
AcDbLine
 10
65.5
 20
0.0
 30
0.0
 11
65.5
 21
17.9295022911
 31
0.0
  0
LINE
  5
1E3
330
23
100
AcDbEntity
  8
0
  6
Continuous
 62
     7
370
    25
100
AcDbLine
 10
-77.5
 20
0.2
 30
0.0
 11
77.5
 21
0.2
 31
0.0
  0
LINE
  5
1E4
330
23
100
AcDbEntity
  8
0
  6
Continuous
 62
     7
370
    25
100
AcDbLine
 10
-65.5
 20
17.9295022911
 30
0.0
 11
-65.5
 21
0.0
 31
0.0
  0
LINE
  5
1E5
330
23
100
AcDbEntity
  8
0
  6
Continuous
 62
     7
370
    25
100
AcDbLine
 10
77.3
 20
0.0
 30
0.0
 11
-77.3
 21
0.0
 31
0.0
  0
LINE
  5
1E6
330
23
100
AcDbEntity
  8
0
  6
Continuous
 62
     7
370
    25
100
AcDbLine
 10
65.5
 20
17.7295022911
 30
0.0
 11
-65.5
 21
17.7295022911
 31
0.0
  0
LINE
  5
1E7
330
23
100
AcDbEntity
  8
0
  6
Continuous
 62
     7
370
    25
100
AcDbLine
 10
-77.5
 20
0.2
 30
0.0
 11
-77.5
 21
24.396106073
 31
0.0
  0
LINE
  5
1E8
330
23
100
AcDbEntity
  8
0
  6
Continuous
 62
     7
370
    25
100
AcDbLine
 10
-73.3
 20
23.9889824373
 30
0.0
 11
-73.3
 21
17.1027833691
 31
0.0
  0
LINE
  5
1E9
330
23
100
AcDbEntity
  8
0
  6
Continuous
 62
     7
370
    25
100
AcDbLine
 10
73.3
 20
17.0970649379
 30
0.0
 11
73.3
 21
23.9889824373
 31
0.0
  0
LINE
  5
1EA
330
23
100
AcDbEntity
  8
0
  6
Continuous
 62
     7
370
    25
100
AcDbLine
 10
-77.3
 20
24.5855027361
 30
0.0
 11
-77.3
 21
16.007920149
 31
0.0
  0
LINE
  5
1EB
330
23
100
AcDbEntity
  8
0
  6
Continuous
 62
     7
370
    25
100
AcDbLine
 10
67.5
 20
27.910345761
 30
0.0
 11
-67.5
 21
27.910345761
 31
0.0
  0
LINE
  5
1EC
330
23
100
AcDbEntity
  8
0
  6
Continuous
 62
     7
370
    25
100
AcDbLine
 10
77.3
 20
15.9960433769
 30
0.0
 11
77.3
 21
24.5855027361
 31
0.0
  0
LINE
  5
1ED
330
23
100
AcDbEntity
  8
0
  6
Continuous
 62
     7
370
    25
100
AcDbLine
 10
73.5
 20
24.1783791004
 30
0.0
 11
73.5
 21
17.0883100443
 31
0.0
  0
LINE
  5
1EE
330
23
100
AcDbEntity
  8
0
  6
Continuous
 62
     7
370
    25
100
AcDbLine
 10
-66.3
 20
26.6211209146
 30
0.0
 11
66.3
 21
26.6211209146
 31
0.0
  0
LINE
  5
1EF
330
23
100
AcDbEntity
  8
0
  6
Continuous
 62
     7
370
    25
100
AcDbLine
 10
-73.5
 20
17.0349601846
 30
0.0
 11
-73.5
 21
24.1783791004
 31
0.0
  0
LINE
  5
1F0
330
23
100
AcDbEntity
  8
0
  6
Continuous
 62
     7
370
    25
100
AcDbLine
 10
-66.3
 20
26.6211209146
 30
0.0
 11
-66.3
 21
19.5938436146
 31
0.0
  0
LINE
  5
1F1
330
23
100
AcDbEntity
  8
0
  6
Continuous
 62
     7
370
    25
100
AcDbLine
 10
66.3
 20
19.5938436146
 30
0.0
 11
66.3
 21
26.6211209146
 31
0.0
  0
LINE
  5
1F2
330
23
100
AcDbEntity
  8
0
  6
Continuous
 62
     7
370
    25
100
AcDbLine
 10
67.5
 20
27.920949098
 30
0.0
 11
67.5
 21
27.910345761
 31
0.0
  0
LINE
  5
1F3
330
23
100
AcDbEntity
  8
0
  6
Continuous
 62
     7
370
    25
100
AcDbLine
 10
-77.5
 20
24.396106073
 30
0.0
 11
-77.4504678558
 21
24.7266211326
 31
0.0
  0
LINE
  5
1F4
330
23
100
AcDbEntity
  8
0
  6
Continuous
 62
     7
370
    25
100
AcDbLine
 10
-67.5
 20
27.920949098
 30
0.0
 11
-67.5
 21
27.910345761
 31
0.0
  0
LINE
  5
1F5
330
23
100
AcDbEntity
  8
0
  6
Continuous
 62
     7
370
    25
100
AcDbLine
 10
66.3
 20
26.4317242515
 30
0.0
 11
-66.3
 21
26.4317242515
 31
0.0
  0
LINE
  5
1F6
330
23
100
AcDbEntity
  8
0
  6
Continuous
 62
     7
370
    25
100
AcDbLine
 10
-66.3
 20
19.7938436146
 30
0.0
 11
66.3
 21
19.7938436146
 31
0.0
  0
ARC
  5
1F7
330
23
100
AcDbEntity
  8
0
  6
Continuous
 62
     7
370
    25
100
AcDbCircle
 10
-77.3
 20
0.2
 30
0.0
 40
0.1999999999999602
100
AcDbArc
 50
180.0
 51
270.0
  0
ARC
  5
1F8
330
23
100
AcDbEntity
  8
0
  6
Continuous
 62
     7
370
    25
100
AcDbCircle
 10
77.3
 20
0.2
 30
0.0
 40
0.2000000000000171
100
AcDbArc
 50
270.0
 51
360.0
  0
ARC
  5
1F9
330
23
100
AcDbEntity
  8
0
  6
Continuous
 62
     7
370
    25
100
AcDbCircle
 10
77.30516113
 20
18.1723962455
 30
0.0
 40
0.1949150804173863
100
AcDbArc
 50
1.6022720993
 51
91.5173045251
  0
ARC
  5
1FA
330
23
100
AcDbEntity
  8
0
  6
Continuous
 62
     7
370
    25
100
AcDbCircle
 10
-77.30516113
 20
18.1723962455
 30
0.0
 40
0.1949150804173715
100
AcDbArc
 50
88.4826954749
 51
178.3977279007
  0
ARC
  5
1FB
330
23
100
AcDbEntity
  8
0
  6
Continuous
 62
     7
370
    25
100
AcDbCircle
 10
-73.49483887
 20
18.1723962455
 30
0.0
 40
0.1949150804174307
100
AcDbArc
 50
1.6022720993
 51
91.5173045251
  0
ARC
  5
1FC
330
23
100
AcDbEntity
  8
0
  6
Continuous
 62
     7
370
    25
100
AcDbCircle
 10
73.49483887
 20
18.1723962455
 30
0.0
 40
0.1949150804173434
100
AcDbArc
 50
88.4826954749
 51
178.3977279007
  0
ARC
  5
1FD
330
23
100
AcDbEntity
  8
0
  6
Continuous
 62
     7
370
    25
100
AcDbCircle
 10
-68.4101021264
 20
10.0993503231
 30
0.0
 40
17.83423237401745
100
AcDbArc
 50
87.0748575684
 51
115.2559906509
  0
ARC
  5
1FE
330
23
100
AcDbEntity
  8
0
  6
Continuous
 62
     7
370
    25
100
AcDbCircle
 10
68.1650942463
 20
8.2288738633
 30
0.0
 40
19.69270642696071
100
AcDbArc
 50
68.0801726677
 51
91.9354547168
  0
ARC
  5
1FF
330
23
100
AcDbEntity
  8
0
  6
Continuous
 62
     7
370
    25
100
AcDbCircle
 10
66.8628983137
 20
12.7480211945
 30
0.0
 40
13.88451476849484
100
AcDbArc
 50
66.7015711912
 51
92.3234905658
  0
ARC
  5
200
330
23
100
AcDbEntity
  8
0
  6
Continuous
 62
     7
370
    25
100
AcDbCircle
 10
-66.9966499437
 20
13.7839757355
 30
0.0
 40
12.85603428335486
100
AcDbArc
 50
86.8937029102
 51
116.0699413507
  0
ARC
  5
201
330
23
100
AcDbEntity
  8
0
  6
Continuous
 62
     7
370
    25
100
AcDbCircle
 10
73.49483887
 20
23.9835323624
 30
0.0
 40
0.1949150804173505
100
AcDbArc
 50
88.4826954749
 51
178.3977279007
  0
ARC
  5
202
330
23
100
AcDbEntity
  8
0
  6
Continuous
 62
     7
370
    25
100
AcDbCircle
 10
-77.30516113
 20
24.3906559981
 30
0.0
 40
0.1949150804173884
100
AcDbArc
 50
88.4826954749
 51
178.3977279007
  0
ARC
  5
203
330
23
100
AcDbEntity
  8
0
  6
Continuous
 62
     7
370
    25
100
AcDbCircle
 10
-73.49483887
 20
23.9835323624
 30
0.0
 40
0.1949150804173746
100
AcDbArc
 50
1.6022720993
 51
91.5173045251
  0
ARC
  5
204
330
23
100
AcDbEntity
  8
0
  6
Continuous
 62
     7
370
    25
100
AcDbCircle
 10
77.30516113
 20
24.3906559981
 30
0.0
 40
0.1949150804173742
100
AcDbArc
 50
1.6022720993
 51
91.5173045251
  0
ARC
  5
205
330
23
100
AcDbEntity
  8
0
  6
Continuous
 62
     7
370
    25
100
AcDbCircle
 10
66.7973816909
 20
9.2151856003
 30
0.0
 40
10.41038599278758
100
AcDbArc
 50
57.5766449538
 51
92.738488737
  0
ARC
  5
206
330
23
100
AcDbEntity
  8
0
  6
Continuous
 62
     7
370
    25
100
AcDbCircle
 10
-66.6894181903
 20
8.5530694098
 30
0.0
 40
11.06746670689117
100
AcDbArc
 50
87.9835832531
 51
118.6909511456
  0
ARC
  5
207
330
23
100
AcDbEntity
  8
0
  6
Continuous
 62
     8
370
    25
100
AcDbCircle
 10
-75.1547548609
 20
24.2343443652
 30
0.0
 40
2.173795967531411
100
AcDbArc
 50
113.4356542598
 51
170.7036153495
  0
ARC
  5
208
330
23
100
AcDbEntity
  8
0
  6
Continuous
 62
     8
370
    25
100
AcDbCircle
 10
74.6945548658
 20
23.9435853727
 30
0.0
 40
2.683356526624173
100
AcDbArc
 50
13.8406146027
 51
72.1616189648
  0
ARC
  5
209
330
23
100
AcDbEntity
  8
0
  6
Continuous
 62
     8
370
    25
100
AcDbCircle
 10
71.7362761902
 20
23.807382839
 30
0.0
 40
1.802320699308023
100
AcDbArc
 50
11.8788896497
 51
69.9391001399
  0
ARC
  5
20A
330
23
100
AcDbEntity
  8
0
  6
Continuous
 62
     8
370
    25
100
AcDbCircle
 10
-71.9814004178
 20
23.9473883531
 30
0.0
 40
1.536066865894455
100
AcDbArc
 50
115.6559488212
 51
171.3511639857
  0
VIEWPORT
  5
3C3
330
23
100
AcDbEntity
  8
0
100
AcDbViewport
 10
0.0
 20
0.0
 30
0.0
 40
205.6
 41
156.0
 68
     1
 69
     1
 12
0.0
 22
0.0
 13
0.0
 23
0.0
 14
10.0
 24
10.0
 15
10.0
 25
10.0
 16
0.0
 26
0.0
 36
1.0
 17
0.0
 27
0.0
 37
0.0
 42
50.0
 43
0.0
 44
0.0
 45
119.9591439689
 50
0.0
 51
0.0
 72
   100
 90
   557152
  1

281
     0
 71
     1
 74
     0
110
0.0
120
0.0
130
0.0
111
1.0
121
0.0
131
0.0
112
0.0
122
1.0
132
0.0
 79
     0
146
0.0
  0
ENDBLK
  5
25
330
23
100
AcDbEntity
  8
0
100
AcDbBlockEnd
  0
BLOCK
  5
2AF
330
2AD
100
AcDbEntity
  8
0
100
AcDbBlockBegin
  2
*Paper_Space2
 70
     0
 10
0.0
 20
0.0
 30
0.0
  3
*Paper_Space2
  1

  0
SPLINE
  5
2B5
330
2AD
100
AcDbEntity
  8
0
  6
Continuous
 62
     7
370
    25
100
AcDbSpline
210
0.0
220
0.0
230
1.0
 70
     8
 71
     3
 72
    13
 73
     9
 74
     0
 42
0.000000001
 43
0.00000001
 40
0.0
 40
0.0
 40
0.0
 40
0.0
 40
0.0951817352377794
 40
0.2761539067805615
 40
0.4571361221062089
 40
0.6381254841563287
 40
0.8191303460981667
 40
1.0
 40
1.0
 40
1.0
 40
1.0
 10
60.36730955381118
 20
-11.95859040997198
 30
0.0
 10
60.10177230259799
 20
-12.09064675742471
 30
0.0
 10
59.33136032035051
 20
-12.4737861924554
 30
0.0
 10
58.06091874142227
 20
-13.04102315471292
 30
0.0
 10
56.56207024367296
 20
-13.63021704937438
 30
0.0
 10
55.07755457913448
 20
-14.12577392396529
 30
0.0
 10
53.60898766252484
 20
-14.53644678434408
 30
0.0
 10
52.64824926747083
 20
-14.73174577293274
 30
0.0
 10
52.16805955143489
 20
-14.82935878221321
 30
0.0
  0
SPLINE
  5
2B6
330
2AD
100
AcDbEntity
  8
0
  6
Continuous
 62
     7
370
    25
100
AcDbSpline
210
0.0
220
0.0
230
1.0
 70
     8
 71
     3
 72
    11
 73
     7
 74
     0
 42
0.000000001
 43
0.00000001
 40
0.0
 40
0.0
 40
0.0
 40
0.0
 40
0.2502431485823599
 40
0.5857203865347541
 40
0.9234939644115281
 40
1.0
 40
1.0
 40
1.0
 40
1.0
 10
68.02562446613074
 20
-2.335088250044068
 30
0.0
 10
67.89077843691129
 20
-2.182333719834456
 30
0.0
 10
67.57515713497142
 20
-1.824795689378213
 30
0.0
 10
66.97315510942218
 20
-1.33018762079447
 30
0.0
 10
66.45223812630792
 20
-0.9527829733512443
 30
0.0
 10
66.12593549099849
 20
-0.7801042095337986
 30
0.0
 10
66.0656763804408
 20
-0.7482151973290108
 30
0.0
  0
SPLINE
  5
2B8
330
2AD
100
AcDbEntity
  8
0
  6
Continuous
 62
     7
370
    25
100
AcDbSpline
210
0.0
220
0.0
230
1.0
 70
     8
 71
     3
 72
    10
 73
     6
 74
     0
 42
0.000000001
 43
0.00000001
 40
0.0
 40
0.0
 40
0.0
 40
0.0
 40
0.2721183500195535
 40
0.6536885122384811
 40
1.0
 40
1.0
 40
1.0
 40
1.0
 10
61.63654934801179
 20
-10.99865069083186
 30
0.0
 10
61.54720221484103
 20
-11.09820184985139
 30
0.0
 10
61.33257062328917
 20
-11.33734577023167
 30
0.0
 10
60.90644797028658
 20
-11.66216151984899
 30
0.0
 10
60.53925577686532
 20
-11.86171664678133
 30
0.0
 10
60.3645530971075
 20
-11.95666097310173
 30
0.0
  0
SPLINE
  5
2B9
330
2AD
100
AcDbEntity
  8
0
  6
Continuous
 62
     7
370
    25
100
AcDbSpline
210
0.0
220
0.0
230
1.0
 70
     8
 71
     3
 72
    11
 73
     7
 74
     0
 42
0.000000001
 43
0.00000001
 40
0.0
 40
0.0
 40
0.0
 40
0.0
 40
0.0079553183358238
 40
0.4624021494257022
 40
0.8887559532213152
 40
1.0
 40
1.0
 40
1.0
 40
1.0
 10
57.35648547598309
 20
-25.29839199952366
 30
0.0
 10
57.35766630140937
 20
-25.30094755641122
 30
0.0
 10
57.42630167112771
 20
-25.44948906636758
 30
0.0
 10
57.50027642026296
 20
-25.8014675736344
 30
0.0
 10
57.55717588820868
 20
-26.2116542514377
 30
0.0
 10
57.56639122701878
 20
-26.45042438863568
 30
0.0
 10
57.56829813862672
 20
-26.49983261503283
 30
0.0
  0
SPLINE
  5
2BE
330
2AD
100
AcDbEntity
  8
0
  6
Continuous
 62
     7
370
    25
100
AcDbSpline
210
0.0
220
0.0
230
1.0
 70
     8
 71
     3
 72
    11
 73
     7
 74
     0
 42
0.000000001
 43
0.00000001
 40
0.0
 40
0.0
 40
0.0
 40
0.0
 40
0.185549814245495
 40
0.5380345136627606
 40
0.8906651275434858
 40
1.0
 40
1.0
 40
1.0
 40
1.0
 10
66.07305455796845
 20
-25.03281023746511
 30
0.0
 10
66.21063748207179
 20
-24.95110880228727
 30
0.0
 10
66.60958351152082
 20
-24.71420103646598
 30
0.0
 10
67.20699202883236
 20
-24.2877172602088
 30
0.0
 10
67.71164847587434
 20
-23.87707887876039
 30
0.0
 10
67.94600254411287
 20
-23.6249623051385
 30
0.0
 10
68.00146788279798
 20
-23.56529305659857
 30
0.0
  0
SPLINE
  5
2C1
330
2AD
100
AcDbEntity
  8
0
  6
Continuous
 62
     7
370
    25
100
AcDbSpline
210
0.0
220
0.0
230
1.0
 70
     8
 71
     3
 72
    13
 73
     9
 74
     0
 42
0.000000001
 43
0.00000001
 40
0.0
 40
0.0
 40
0.0
 40
0.0
 40
0.1061639989966417
 40
0.3092075367907988
 40
0.5124177354742697
 40
0.7152926319034387
 40
0.9166948467072905
 40
1.0
 40
1.0
 40
1.0
 40
1.0
 10
-67.42375615476773
 20
44.32356167431114
 30
0.0
 10
-67.54925562616155
 20
44.29869830096553
 30
0.0
 10
-67.91477861686444
 20
44.22628258093646
 30
0.0
 10
-68.4633862385207
 20
44.07256720839992
 30
0.0
 10
-69.03969380596274
 20
43.84930441765344
 30
0.0
 10
-69.52156444377478
 20
43.57984674485072
 30
0.0
 10
-69.85397208486538
 20
43.33616490704179
 30
0.0
 10
-69.98773459066885
 20
43.16639469033075
 30
0.0
 10
-70.02687339527822
 20
43.11672005766424
 30
0.0
  0
SPLINE
  5
2C3
330
2AD
100
AcDbEntity
  8
0
  6
Continuous
 62
     7
370
    25
100
AcDbSpline
210
0.0
220
0.0
230
1.0
 70
     8
 71
     3
 72
    11
 73
     7
 74
     0
 42
0.000000001
 43
0.00000001
 40
0.0
 40
0.0
 40
0.0
 40
0.0
 40
0.1974165233605086
 40
0.5716315991947203
 40
0.9458770734591132
 40
1.0
 40
1.0
 40
1.0
 40
1.0
 10
-63.75175046788159
 20
39.02282291742043
 30
0.0
 10
-63.85197325970768
 20
39.08203666733537
 30
0.0
 10
-64.14217447383143
 20
39.25349369627098
 30
0.0
 10
-64.55938620816521
 20
39.54349019064848
 30
0.0
 10
-64.88061716229174
 20
39.79253258731559
 30
0.0
 10
-65.00588031316782
 20
39.9220552609138
 30
0.0
 10
-65.02170689678233
 20
39.93842002109536
 30
0.0
  0
SPLINE
  5
2C4
330
2AD
100
AcDbEntity
  8
0
  6
Continuous
 62
     7
370
    25
100
AcDbSpline
210
0.0
220
0.0
230
1.0
 70
     8
 71
     3
 72
    10
 73
     6
 74
     0
 42
0.000000001
 43
0.00000001
 40
0.0
 40
0.0
 40
0.0
 40
0.0
 40
0.3402240131219839
 40
0.7978125276227856
 40
1.0
 40
1.0
 40
1.0
 40
1.0
 10
-68.81589901856091
 20
34.55826027438522
 30
0.0
 10
-68.6837803249114
 20
34.46075409253174
 30
0.0
 10
-68.37396695236455
 20
34.23210575965972
 30
0.0
 10
-67.9141021163656
 20
33.94083943165234
 30
0.0
 10
-67.58738893852025
 20
33.74936547563254
 30
0.0
 10
-67.48726812034154
 20
33.69068853684777
 30
0.0
  0
SPLINE
  5
2C7
330
2AD
100
AcDbEntity
  8
0
  6
Continuous
 62
     7
370
    25
100
AcDbSpline
210
0.0
220
0.0
230
1.0
 70
     8
 71
     3
 72
    15
 73
    11
 74
     0
 42
0.000000001
 43
0.00000001
 40
0.0
 40
0.0
 40
0.0
 40
0.0
 40
0.0712784888556701
 40
0.2067876185958024
 40
0.342300328131556
 40
0.4778114839591304
 40
0.6133238302043362
 40
0.7488423434495178
 40
0.8843735115644765
 40
1.0
 40
1.0
 40
1.0
 40
1.0
 10
-43.44968758134434
 20
51.16828735790616
 30
0.0
 10
-43.71598743495063
 20
51.0084261400686
 30
0.0
 10
-44.48855589766261
 20
50.54464918473233
 30
0.0
 10
-45.76759907148335
 20
49.84121918869208
 30
0.0
 10
-47.28272222402271
 20
49.0879357282791
 30
0.0
 10
-48.79051019620824
 20
48.42396378664843
 30
0.0
 10
-50.28752837490122
 20
47.84882225643528
 30
0.0
 10
-51.76976857564587
 20
47.36627740006583
 30
0.0
 10
-53.16402872165815
 20
46.98886675728463
 30
0.0
 10
-54.05394747622709
 20
46.81010851846935
 30
0.0
 10
-54.46364305149634
 20
46.72781284921918
 30
0.0
  0
SPLINE
  5
2C8
330
2AD
100
AcDbEntity
  8
0
  6
Continuous
 62
     7
370
    25
100
AcDbSpline
210
0.0
220
0.0
230
1.0
 70
     8
 71
     3
 72
    25
 73
    21
 74
     0
 42
0.000000001
 43
0.00000001
 40
0.0
 40
0.0
 40
0.0
 40
0.0
 40
0.0529353189939799
 40
0.1111275755570225
 40
0.1694054819859344
 40
0.2272394304418402
 40
0.2854669667231005
 40
0.3442564910893006
 40
0.4035203229441769
 40
0.4631193277109373
 40
0.5228859697736372
 40
0.5822935432255032
 40
0.6418041507857107
 40
0.7017735069678316
 40
0.7616819326330504
 40
0.8210184499268862
 40
0.8794405428878419
 40
0.9372876093266644
 40
0.9955563965967703
 40
1.0
 40
1.0
 40
1.0
 40
1.0
 10
-26.56099160404476
 20
52.73048584662467
 30
0.0
 10
-26.80239560808466
 20
52.86326025101798
 30
0.0
 10
-27.30917713332236
 20
53.14199471293624
 30
0.0
 10
-28.16186148776514
 20
53.48209511250624
 30
0.0
 10
-29.08848162834478
 20
53.76461925610076
 30
0.0
 10
-30.06370889752213
 20
53.9723502741722
 30
0.0
 10
-31.07975664168023
 20
54.10951152702045
 30
0.0
 10
-32.13464353114359
 20
54.17700197659068
 30
0.0
 10
-33.21997267426535
 20
54.17589488322622
 30
0.0
 10
-34.32513018180876
 20
54.10781576745028
 30
0.0
 10
-35.43634489569015
 20
53.97551630643036
 30
0.0
 10
-36.5433560477177
 20
53.78316972033423
 30
0.0
 10
-37.63912794994223
 20
53.53625419467595
 30
0.0
 10
-38.71690173238076
 20
53.2387876998141
 30
0.0
 10
-39.76397831036829
 20
52.89637653349143
 30
0.0
 10
-40.76304622584281
 20
52.51658529749633
 30
0.0
 10
-41.70499987760417
 20
52.1068561809457
 30
0.0
 10
-42.57852648722536
 20
51.66884774993976
 30
0.0
 10
-43.15922566269538
 20
51.35466726781434
 30
0.0
 10
-43.42699647879025
 20
51.18111641394174
 30
0.0
 10
-43.44596987937202
 20
51.16881914450867
 30
0.0
  0
SPLINE
  5
2CA
330
2AD
100
AcDbEntity
  8
0
  6
Continuous
 62
     7
370
    25
100
AcDbSpline
210
0.0
220
0.0
230
1.0
 70
     8
 71
     3
 72
     9
 73
     5
 74
     0
 42
0.000000001
 43
0.00000001
 40
0.0
 40
0.0
 40
0.0
 40
0.0
 40
0.5289508805234692
 40
1.0
 40
1.0
 40
1.0
 40
1.0
 10
-43.38707516970896
 20
34.89154517032185
 30
0.0
 10
-43.2823346652803
 20
34.95113804444709
 30
0.0
 10
-43.0843191060189
 20
35.06380044150418
 30
0.0
 10
-42.86060973095498
 20
35.16010795282166
 30
0.0
 10
-42.75523162681246
 20
35.20547352122672
 30
0.0
  0
SPLINE
  5
2CB
330
2AD
100
AcDbEntity
  8
0
  6
Continuous
 62
     7
370
    25
100
AcDbSpline
210
0.0
220
0.0
230
1.0
 70
     8
 71
     3
 72
    11
 73
     7
 74
     0
 42
0.000000001
 43
0.00000001
 40
0.0
 40
0.0
 40
0.0
 40
0.0
 40
0.0079553183358136
 40
0.462402149425695
 40
0.8887559532213019
 40
1.0
 40
1.0
 40
1.0
 40
1.0
 10
-49.27521712694811
 20
36.25877963190869
 30
0.0
 10
-49.27403630152183
 20
36.25622407502114
 30
0.0
 10
-49.20540093180347
 20
36.10768256506479
 30
0.0
 10
-49.13142618266829
 20
35.75570405779797
 30
0.0
 10
-49.07452671472248
 20
35.34551737999465
 30
0.0
 10
-49.06531137591242
 20
35.10674724279669
 30
0.0
 10
-49.06340446430449
 20
35.05733901639952
 30
0.0
  0
LWPOLYLINE
  5
2D9
330
2AD
100
AcDbEntity
  8
0
  6
Continuous
 62
     7
370
    25
100
AcDbPolyline
 90
       15
 70
   128
 43
0.0
 10
-67.341840006
 20
44.3077966639
 10
-68.0741420785
 20
44.1387093278
 10
-68.7100907028
 20
43.9214410151
 10
-69.2416884558
 20
43.658724001
 10
-69.6622501874
 20
43.3538621043
 10
-69.9664870897
 20
43.0106891402
 10
-70.1505732073
 20
42.6335207079
 10
-70.2121935503
 20
42.2270999193
 10
-70.1505732073
 20
41.7965377516
 10
-69.9664870897
 20
41.3472487739
 10
-69.6622501874
 20
40.8848830557
 10
-69.2416884558
 20
40.4152551142
 10
-68.7100907028
 20
39.9442707934
 10
-68.0741420785
 20
39.4778529942
 10
-67.341840006
 20
39.0218671911
  0
LWPOLYLINE
  5
2DD
330
2AD
100
AcDbEntity
  8
0
  6
Continuous
 62
     7
370
    25
100
AcDbPolyline
 90
       13
 70
   128
 43
0.0
 10
-63.8063061
 20
39.0304930337
 10
-64.4272813256
 20
39.4221986241
 10
-64.9505201827
 20
39.8233621809
 10
-65.3670699096
 20
40.2271196843
 10
-65.6698032248
 20
40.6265627315
 10
-65.8535402774
 20
41.0148567412
 10
-65.9151372755
 20
41.3853578952
 10
-65.8535402774
 20
41.7317268162
 10
-65.6698032248
 20
42.0480370357
 10
-65.3670699096
 20
42.3288763983
 10
-64.9505201827
 20
42.5694396647
 10
-64.4272813256
 20
42.7656107305
 10
-63.8063061
 20
42.9140330545
  0
SPLINE
  5
2F4
330
2AD
100
AcDbEntity
  8
0
  6
Continuous
 62
     7
370
    25
100
AcDbSpline
210
0.0
220
0.0
230
1.0
 70
     8
 71
     3
 72
    27
 73
    23
 74
     0
 42
0.000000001
 43
0.00000001
 40
0.0
 40
0.0
 40
0.0
 40
0.0
 40
0.1250000000000005
 40
0.1250000000000005
 40
0.1875000000000005
 40
0.1875000000000005
 40
0.2500000000000005
 40
0.2500000000000005
 40
0.3750000000000009
 40
0.3750000000000009
 40
0.500000000000001
 40
0.500000000000001
 40
0.625000000000001
 40
0.625000000000001
 40
0.6875000000000008
 40
0.6875000000000008
 40
0.7500000000000006
 40
0.8125000000000004
 40
0.8125000000000004
 40
0.8750000000000002
 40
0.8750000000000002
 40
1.0
 40
1.0
 40
1.0
 40
1.0
 10
-43.47837200146986
 20
48.03698057011773
 30
0.0
 10
-43.14341008674261
 20
48.20652307537643
 30
0.0
 10
-42.78080934006001
 20
48.36044659554683
 30
0.0
 10
-42.19701901066495
 20
48.5682226182891
 30
0.0
 10
-41.99572528037302
 20
48.63359199185814
 30
0.0
 10
-41.57942139456247
 20
48.75614260798493
 30
0.0
 10
-41.36391444484202
 20
48.81336856126649
 30
0.0
 10
-40.71109423202002
 20
48.96842502231066
 30
0.0
 10
-40.26303999085687
 20
49.05127159291003
 30
0.0
 10
-39.34142683099109
 20
49.17336237143813
 30
0.0
 10
-38.86582580784518
 20
49.21210279136447
 30
0.0
 10
-37.92953734481897
 20
49.23850559033033
 30
0.0
 10
-37.46382058355835
 20
49.22708751321445
 30
0.0
 10
-36.76886255649531
 20
49.1694425859682
 30
0.0
 10
-36.53897112813539
 20
49.14344516909204
 30
0.0
 10
-36.09007696668707
 20
49.07862345931707
 30
0.0
 10
-35.64983107096314
 20
49.00080724200875
 30
0.0
 10
-35.22663512835697
 20
48.89665535688818
 30
0.0
 10
-34.81209078311326
 20
48.77884054056778
 30
0.0
 10
-34.60823169653873
 20
48.7127387159386
 30
0.0
 10
-34.01867054758213
 20
48.49593913585067
 30
0.0
 10
-33.65423777090232
 20
48.32712339055994
 30
0.0
 10
-33.31869927454553
 20
48.1334211396815
 30
0.0
  0
SPLINE
  5
2F7
330
2AD
100
AcDbEntity
  8
0
  6
Continuous
 62
     7
370
    25
100
AcDbSpline
210
0.0
220
0.0
230
1.0
 70
     8
 71
     3
 72
    30
 73
    26
 74
     0
 42
0.000000001
 43
0.00000001
 40
0.0
 40
0.0
 40
0.0
 40
0.0
 40
0.1249999999999991
 40
0.1249999999999991
 40
0.1874999999999986
 40
0.1874999999999986
 40
0.2499999999999981
 40
0.2499999999999981
 40
0.3124999999999977
 40
0.3124999999999977
 40
0.3749999999999972
 40
0.3749999999999972
 40
0.4999999999999962
 40
0.4999999999999962
 40
0.5624999999999964
 40
0.5624999999999964
 40
0.6249999999999967
 40
0.6249999999999967
 40
0.7499999999999986
 40
0.7499999999999986
 40
0.8124999999999991
 40
0.8124999999999991
 40
0.8749999999999996
 40
0.8749999999999996
 40
1.0
 40
1.0
 40
1.0
 40
1.0
 10
-26.69896752175207
 20
52.69488751774351
 30
0.0
 10
-27.25230616055043
 20
53.01432311454396
 30
0.0
 10
-27.85307752528369
 20
53.27931213423164
 30
0.0
 10
-28.82436701761936
 20
53.59799841060801
 30
0.0
 10
-29.15999475915053
 20
53.69083656743938
 30
0.0
 10
-29.84137162123911
 20
53.84737125476131
 30
0.0
 10
-30.18874218226355
 20
53.91165076455331
 30
0.0
 10
-30.896643917489
 20
54.01370839675742
 30
0.0
 10
-31.25717535365791
 20
54.05148451638718
 30
0.0
 10
-31.99161155992777
 20
54.10135902991311
 30
0.0
 10
-32.36713178186217
 20
54.11344352637931
 30
0.0
 10
-33.50336953108344
 20
54.11156917631445
 30
0.0
 10
-34.26325891576281
 20
54.06038725071367
 30
0.0
 10
-35.40784248702535
 20
53.9182379569253
 30
0.0
 10
-35.79016652018589
 20
53.8598654504458
 30
0.0
 10
-36.55667069574961
 20
53.72167903312433
 30
0.0
 10
-36.94004901452078
 20
53.64187902080185
 30
0.0
 10
-38.06888847617604
 20
53.37689941875541
 30
0.0
 10
-38.80132946179672
 20
53.16508071324051
 30
0.0
 10
-39.87023476994494
 20
52.79926168083345
 30
0.0
 10
-40.22345782978419
 20
52.66841767319477
 30
0.0
 10
-40.90710734108418
 20
52.39548416622859
 30
0.0
 10
-41.23799928080823
 20
52.25336925920832
 30
0.0
 10
-42.19853964533131
 20
51.81114505529594
 30
0.0
 10
-42.79638732431962
 20
51.4954123981725
 30
0.0
 10
-43.34954226865585
 20
51.15847633016669
 30
0.0
  0
SPLINE
  5
2F9
330
2AD
100
AcDbEntity
  8
0
  6
Continuous
 62
     7
370
    25
100
AcDbSpline
210
0.0
220
0.0
230
1.0
 70
     8
 71
     3
 72
    28
 73
    24
 74
     0
 42
0.000000001
 43
0.00000001
 40
0.0
 40
0.0
 40
0.0
 40
0.0
 40
0.1250000000000007
 40
0.1250000000000007
 40
0.1875000000000006
 40
0.1875000000000006
 40
0.2500000000000005
 40
0.2500000000000005
 40
0.3750000000000011
 40
0.3750000000000011
 40
0.5000000000000017
 40
0.5000000000000017
 40
0.5625000000000013
 40
0.5625000000000013
 40
0.6250000000000011
 40
0.6250000000000011
 40
0.7500000000000002
 40
0.7500000000000002
 40
0.8125000000000008
 40
0.8125000000000008
 40
0.8750000000000012
 40
0.8750000000000012
 40
1.0
 40
1.0
 40
1.0
 40
1.0
 10
65.96916610278423
 20
-11.94987071372883
 30
0.0
 10
66.52225586027038
 20
-11.61297435214016
 30
0.0
 10
67.01291801236958
 20
-11.2321697549512
 30
0.0
 10
67.65734865813678
 20
-10.59772163620952
 30
0.0
 10
67.85701688812695
 20
-10.37504093104584
 30
0.0
 10
68.21799013791285
 20
-9.91788306411221
 30
0.0
 10
68.38042095674713
 20
-9.68242671618082
 30
0.0
 10
68.81503779956587
 20
-8.956926113661169
 30
0.0
 10
69.0354849941286
 20
-8.44635463886833
 30
0.0
 10
69.33047499184042
 20
-7.385731778111013
 30
0.0
 10
69.40144163845623
 20
-6.85029546541235
 30
0.0
 10
69.3977940273834
 20
-6.045687253004875
 30
0.0
 10
69.37808406714451
 20
-5.777237148706146
 30
0.0
 10
69.30072115307766
 20
-5.24089607747108
 30
0.0
 10
69.24281020534701
 20
-4.973094355814014
 30
0.0
 10
69.01546544944252
 20
-4.189136276657769
 30
0.0
 10
68.79236794190871
 20
-3.686476628951906
 30
0.0
 10
68.34900929292314
 20
-2.968538450449644
 30
0.0
 10
68.18185700971279
 20
-2.734013246604647
 30
0.0
 10
67.81574794159548
 20
-2.286144213644606
 30
0.0
 10
67.61700356713733
 20
-2.072617073573639
 30
0.0
 10
66.97463448904054
 20
-1.463530971747087
 30
0.0
 10
66.48533277165599
 20
-1.099264000930364
 30
0.0
 10
65.9320208136855
 20
-0.7798438066440125
 30
0.0
  0
SPLINE
  5
2FC
330
2AD
100
AcDbEntity
  8
0
  6
Continuous
 62
     7
370
    25
100
AcDbSpline
210
0.0
220
0.0
230
1.0
 70
     8
 71
     3
 72
    27
 73
    23
 74
     0
 42
0.000000001
 43
0.00000001
 40
0.0
 40
0.0
 40
0.0
 40
0.0
 40
0.1250000000000006
 40
0.1250000000000006
 40
0.187499999999999
 40
0.187499999999999
 40
0.2499999999999974
 40
0.2499999999999974
 40
0.3749999999999979
 40
0.3749999999999979
 40
0.4999999999999986
 40
0.4999999999999986
 40
0.6249999999999991
 40
0.6249999999999991
 40
0.6874999999999994
 40
0.6874999999999994
 40
0.7499999999999997
 40
0.8125
 40
0.8125
 40
0.8750000000000003
 40
0.8750000000000003
 40
1.0
 40
1.0
 40
1.0
 40
1.0
 10
60.44365991079052
 20
-5.994436674164192
 30
0.0
 10
60.77921726328874
 20
-6.188149810461375
 30
0.0
 10
61.07648693353917
 20
-6.401323799352578
 30
0.0
 10
61.46730463816899
 20
-6.748582268330174
 30
0.0
 10
61.58832819596347
 20
-6.868942475990639
 30
0.0
 10
61.81145836068065
 20
-7.118878427258609
 30
0.0
 10
61.91372497259608
 20
-7.248881722413724
 30
0.0
 10
62.18532774507965
 20
-7.644085774237343
 30
0.0
 10
62.32231153122988
 20
-7.916894106862221
 30
0.0
 10
62.50879582792498
 20
-8.478218815964444
 30
0.0
 10
62.55737503154074
 20
-8.768503988001608
 30
0.0
 10
62.56082235973788
 20
-9.337210345742454
 30
0.0
 10
62.51720043177328
 20
-9.618517695226453
 30
0.0
 10
62.38183160347196
 20
-10.03322534007865
 30
0.0
 10
62.32483898692322
 20
-10.1700943282438
 30
0.0
 10
62.18984152272262
 20
-10.43487520529127
 30
0.0
 10
62.03338614283616
 20
-10.69229157390764
 30
0.0
 10
61.83462256687275
 20
-10.9345122639585
 30
0.0
 10
61.61439425903327
 20
-11.16873962861406
 30
0.0
 10
61.4929266748558
 20
-11.28234620922161
 30
0.0
 10
61.09978165342481
 20
-11.606419251861
 30
0.0
 10
60.80130843353999
 20
-11.79946216719542
 30
0.0
 10
60.46632483295244
 20
-11.96901564885148
 30
0.0
  0
SPLINE
  5
301
330
2AD
100
AcDbEntity
  8
0
  6
Continuous
 62
     7
370
    25
100
AcDbSpline
210
0.0
220
0.0
230
1.0
 70
     8
 71
     3
 72
    14
 73
    10
 74
     0
 42
0.000000001
 43
0.00000001
 40
0.0
 40
0.0
 40
0.0
 40
0.0
 40
0.0572066201482877
 40
0.2092458843192472
 40
0.3654806489109736
 40
0.5215146167134115
 40
0.6818741087856339
 40
0.8412694369248616
 40
1.0
 40
1.0
 40
1.0
 40
1.0
 10
68.02429021766113
 20
-2.423645878856115
 30
0.0
 10
68.15351882205225
 20
-2.555689782657274
 30
0.0
 10
68.62620106643355
 20
-3.038669608212785
 30
0.0
 10
69.15342740781699
 20
-4.037603719745135
 30
0.0
 10
69.58384078495293
 20
-5.360977122195957
 30
0.0
 10
69.67748137087688
 20
-6.764523103086763
 30
0.0
 10
69.43584578275679
 20
-8.163403977949526
 30
0.0
 10
68.87989462234594
 20
-9.520701924794373
 30
0.0
 10
68.23813695736143
 20
-10.31551996547126
 30
0.0
 10
67.91792864255899
 20
-10.71209854842574
 30
0.0
  0
SPLINE
  5
303
330
2AD
100
AcDbEntity
  8
0
  6
Continuous
 62
     7
370
    25
100
AcDbSpline
210
0.0
220
0.0
230
1.0
 70
     8
 71
     3
 72
    14
 73
    10
 74
     0
 42
0.000000001
 43
0.00000001
 40
0.0
 40
0.0
 40
0.0
 40
0.0
 40
0.0734935985745508
 40
0.2512241141989205
 40
0.4241146784555848
 40
0.602041094922417
 40
0.7744095654627813
 40
0.9517403251521374
 40
1.0
 40
1.0
 40
1.0
 40
1.0
 10
61.59677503550529
 20
-11.07418991849196
 30
0.0
 10
61.67596499071102
 20
-10.99278166799113
 30
0.0
 10
61.94666103411993
 20
-10.7145027972156
 30
0.0
 10
62.21387441925927
 20
-10.16894794923739
 30
0.0
 10
62.38950914724774
 20
-9.463886565254292
 30
0.0
 10
62.35828480306165
 20
-8.743479001630124
 30
0.0
 10
62.11808947639409
 20
-8.034507037764865
 30
0.0
 10
61.82850193510005
 20
-7.512250305824728
 30
0.0
 10
61.5649092298713
 20
-7.253207686867255
 30
0.0
 10
61.50851987864414
 20
-7.197791717709383
 30
0.0
  0
LWPOLYLINE
  5
30C
330
2AD
100
AcDbEntity
  8
0
  6
Continuous
 62
     7
370
    25
100
AcDbPolyline
 90
       10
 70
   128
 43
0.0
 10
-69.136622595
 20
39.8785993507
 10
-69.3676950333
 20
40.0876804845
 10
-69.7934340564
 20
40.5378600681
 10
-70.1168880543
 20
40.9835328913
 10
-70.3345131974
 20
41.4198160693
 10
-70.443925139
 20
41.8419295923
 10
-70.443925139
 20
42.2452486964
 10
-70.3345131974
 20
42.6253545329
 10
-70.1168880543
 20
42.9780825827
 10
-70.0797232726
 20
43.0229341193
  0
LWPOLYLINE
  5
30E
330
2AD
100
AcDbEntity
  8
0
  6
Continuous
 62
     7
370
    25
100
AcDbPolyline
 90
        8
 70
   128
 43
0.0
 10
-65.4736782403
 20
41.8920734224
 10
-65.5220543006
 20
41.8372745361
 10
-65.7006875462
 20
41.5357766941
 10
-65.7605735166
 20
41.2044780065
 10
-65.7006875462
 20
40.8490470858
 10
-65.5220543006
 20
40.4755654536
 10
-65.2277302442
 20
40.0904234842
 10
-65.0918437417
 20
39.9476659455
  0
LWPOLYLINE
  5
318
330
2AD
100
AcDbEntity
  8
0
  6
Continuous
 62
     7
370
    25
100
AcDbPolyline
 90
        3
 70
   128
 43
0.0
 10
-43.4465902288
 20
51.1700558591
 10
-43.4484009862
 20
51.169050256
 10
-43.4496772636
 20
51.1682936413
  0
SPLINE
  5
319
330
2AD
100
AcDbEntity
  8
0
  6
Continuous
 62
     7
370
    25
100
AcDbSpline
210
0.0
220
0.0
230
1.0
 70
     8
 71
     3
 72
    27
 73
    23
 74
     0
 42
0.000000001
 43
0.00000001
 40
0.0
 40
0.0
 40
0.0
 40
0.0
 40
0.1250000000000007
 40
0.1250000000000007
 40
0.1875000000000011
 40
0.1875000000000011
 40
0.2500000000000014
 40
0.3125000000000017
 40
0.3125000000000017
 40
0.3750000000000021
 40
0.3750000000000021
 40
0.5000000000000022
 40
0.5000000000000022
 40
0.6250000000000023
 40
0.6250000000000023
 40
0.7500000000000024
 40
0.7500000000000024
 40
0.8125000000000019
 40
0.8125000000000019
 40
0.8750000000000012
 40
0.8750000000000012
 40
1.0
 40
1.0
 40
1.0
 40
1.0
 10
-33.44615075012359
 20
47.89733553039041
 30
0.0
 10
-33.77312544664685
 20
48.08609400485619
 30
0.0
 10
-34.12842837872637
 20
48.25031946854527
 30
0.0
 10
-34.70343183758651
 20
48.46078519211889
 30
0.0
 10
-34.90226375300087
 20
48.52485882051164
 30
0.0
 10
-35.30656545889042
 20
48.63886619901752
 30
0.0
 10
-35.71930640951892
 20
48.73944546058177
 30
0.0
 10
-36.14866716008713
 20
48.81417817593572
 30
0.0
 10
-36.58645304753462
 20
48.87617655929905
 30
0.0
 10
-36.81068386372758
 20
48.90088866924648
 30
0.0
 10
-37.48815346837934
 20
48.95511933984522
 30
0.0
 10
-37.94205397477737
 20
48.9649061917661
 30
0.0
 10
-38.85440034913665
 20
48.93661547048779
 30
0.0
 10
-39.31769518183911
 20
48.89763002998569
 30
0.0
 10
-40.21509889760799
 20
48.77663586597921
 30
0.0
 10
-40.65133220822742
 20
48.69509229308626
 30
0.0
 10
-41.28688221569226
 20
48.54318168347825
 30
0.0
 10
-41.49666069641285
 20
48.4872180587134
 30
0.0
 10
-41.90187057537571
 20
48.36756965149971
 30
0.0
 10
-42.09782186205363
 20
48.30382897105356
 30
0.0
 10
-42.66618978057664
 20
48.10146166186657
 30
0.0
 10
-43.01930834283302
 20
47.95183491523007
 30
0.0
 10
-43.34564568673527
 20
47.78732101592454
 30
0.0
  0
SPLINE
  5
329
330
2AD
100
AcDbEntity
  8
0
  6
Continuous
 62
     8
370
    25
100
AcDbSpline
210
0.0
220
0.0
230
1.0
 70
     8
 71
     3
 72
    10
 73
     6
 74
     0
 42
0.000000001
 43
0.00000001
 40
0.0
 40
0.0
 40
0.0
 40
0.0
 40
0.0236871394124145
 40
0.5081328054938049
 40
0.9999999999999999
 40
0.9999999999999999
 40
0.9999999999999999
 40
0.9999999999999999
 10
67.91792864255899
 20
-10.71209854842574
 30
0.0
 10
67.90773484124364
 20
-10.72610552549023
 30
0.0
 10
67.68905901167909
 20
-11.02658100411791
 30
0.0
 10
67.08556050659128
 20
-11.53273558264828
 30
0.0
 10
66.43981243315989
 20
-11.9714723205502
 30
0.0
 10
66.11448404094213
 20
-12.19250823752946
 30
0.0
  0
SPLINE
  5
32B
330
2AD
100
AcDbEntity
  8
0
  6
Continuous
 62
     8
370
    25
100
AcDbSpline
210
0.0
220
0.0
230
1.0
 70
     8
 71
     3
 72
     9
 73
     5
 74
     0
 42
0.000000001
 43
0.00000001
 40
0.0
 40
0.0
 40
0.0
 40
0.0
 40
0.4116519343936525
 40
1.0
 40
1.0
 40
1.0
 40
1.0
 10
61.50851987864416
 20
-7.197791717709383
 30
0.0
 10
61.37527449277759
 20
-7.049897152935157
 30
0.0
 10
61.05158990700528
 20
-6.690626243660621
 30
0.0
 10
60.58860481720249
 20
-6.400951725733271
 30
0.0
 10
60.31620843521245
 20
-6.230522283455282
 30
0.0
  0
LINE
  5
346
330
2AD
100
AcDbEntity
  8
0
  6
Continuous
 62
     7
370
    25
100
AcDbLine
 10
-67.4872681203
 20
33.6906885368
 30
0.0
 11
27.9721473398
 21
-21.4168590112
 31
0.0
  0
LINE
  5
347
330
2AD
100
AcDbEntity
  8
0
  6
Continuous
 62
     7
370
    25
100
AcDbLine
 10
30.0106087175
 20
-15.1050348964
 30
0.0
 11
-63.7517504679
 21
39.0228229174
 31
0.0
  0
LINE
  5
348
330
2AD
100
AcDbEntity
  8
0
  6
Continuous
 62
     7
370
    25
100
AcDbLine
 10
52.1680595514
 20
-14.8293587822
 30
0.0
 11
40.0564745856
 21
-17.0761981541
 31
0.0
  0
LINE
  5
349
330
2AD
100
AcDbEntity
  8
0
  6
Continuous
 62
     7
370
    25
100
AcDbLine
 10
41.9355592051
 20
-25.3009798921
 30
0.0
 11
54.1901998937
 21
-25.048046575
 31
0.0
  0
LINE
  5
34A
330
2AD
100
AcDbEntity
  8
0
  6
Continuous
 62
     7
370
    25
100
AcDbLine
 10
69.6292026667
 20
-20.0427926052
 30
0.0
 11
69.6292026667
 21
-6.4646702299
 31
0.0
  0
LINE
  5
34B
330
2AD
100
AcDbEntity
  8
0
  6
Continuous
 62
     7
370
    25
100
AcDbLine
 10
60.555205132
 20
-28.2181969082
 30
0.0
 11
66.073054558
 21
-25.0328102375
 31
0.0
  0
LINE
  5
34C
330
2AD
100
AcDbEntity
  8
0
  6
Continuous
 62
     7
370
    25
100
AcDbLine
 10
57.668215617
 20
-26.6670214957
 30
0.0
 11
60.3552213855
 21
-28.2181969082
 31
0.0
  0
LINE
  5
34D
330
2AD
100
AcDbEntity
  8
0
  6
Continuous
 62
     7
370
    25
100
AcDbLine
 10
66.073054558
 20
-0.7392209403
 30
0.0
 11
-26.5579337775
 21
52.7355103841
 31
0.0
  0
LINE
  5
34E
330
2AD
100
AcDbEntity
  8
0
  6
Continuous
 62
     7
370
    25
100
AcDbLine
 10
-33.4047212671
 20
34.8915451703
 30
0.0
 11
52.5723355292
 21
-14.7419532395
 31
0.0
  0
LINE
  5
34F
330
2AD
100
AcDbEntity
  8
0
  6
Continuous
 62
     7
370
    25
100
AcDbLine
 10
-70.4576297914
 20
42.0462200306
 30
0.0
 11
-70.4576297914
 21
36.7344995928
 31
0.0
  0
LINE
  5
350
330
2AD
100
AcDbEntity
  8
0
  6
Continuous
 62
     7
370
    25
100
AcDbLine
 10
-54.4636430515
 20
46.7278128492
 30
0.0
 11
-67.4237561548
 21
44.3235616743
 31
0.0
  0
LINE
  5
351
330
2AD
100
AcDbEntity
  8
0
  6
Continuous
 62
     7
370
    25
100
AcDbLine
 10
-59.1573154427
 20
36.3705120334
 30
0.0
 11
-52.4415027093
 21
36.5091250564
 31
0.0
  0
LINE
  5
352
330
2AD
100
AcDbEntity
  8
0
  6
Continuous
 62
     7
370
    25
100
AcDbLine
 10
-33.6803163553
 20
35.0407494578
 30
0.0
 11
-33.4047212671
 21
34.8915451703
 31
0.0
  0
LINE
  5
353
330
2AD
100
AcDbEntity
  8
0
  6
Continuous
 62
     7
370
    25
100
AcDbLine
 10
-46.0764974709
 20
33.3389747232
 30
0.0
 11
-43.3870751697
 21
34.8915451703
 31
0.0
  0
LINE
  5
354
330
2AD
100
AcDbEntity
  8
0
  6
Continuous
 62
     7
370
    25
100
AcDbLine
 10
-48.963486986
 20
34.8901501357
 30
0.0
 11
-46.2764812174
 21
33.3389747232
 31
0.0
  0
LINE
  5
355
330
2AD
100
AcDbEntity
  8
0
  6
Continuous
 62
     7
370
    25
100
AcDbLine
 10
27.9307178569
 20
-21.3252900499
 30
0.0
 11
27.9307178569
 21
-16.3482010568
 31
0.0
  0
LINE
  5
356
330
2AD
100
AcDbEntity
  8
0
  6
Continuous
 62
     7
370
    25
100
AcDbLine
 10
42.0728534806
 20
-19.0630710798
 30
0.0
 11
42.0728534806
 21
-25.1826632898
 31
0.0
  0
LINE
  5
357
330
2AD
100
AcDbEntity
  8
0
  6
Continuous
 62
     7
370
    25
100
AcDbLine
 10
41.9768683655
 20
-18.8005503799
 30
0.0
 11
54.9369814687
 21
-16.396299205
 31
0.0
  0
LINE
  5
358
330
2AD
100
AcDbEntity
  8
0
  6
Continuous
 62
     7
370
    25
100
AcDbLine
 10
-67.341840006
 20
39.0218671911
 30
0.0
 11
28.1175754542
 21
-16.0856803569
 31
0.0
  0
LINE
  5
359
330
2AD
100
AcDbEntity
  8
0
  6
Continuous
 62
     7
370
    25
100
AcDbLine
 10
-54.3817269027
 20
46.7120478389
 30
0.0
 11
-67.341840006
 21
44.3077966639
 31
0.0
  0
LINE
  5
35A
330
2AD
100
AcDbEntity
  8
0
  6
Continuous
 62
     7
370
    25
100
AcDbLine
 10
-54.3817269027
 20
46.7120478389
 30
0.0
 11
-51.6947211342
 21
45.1608724264
 31
0.0
  0
LINE
  5
35B
330
2AD
100
AcDbEntity
  8
0
  6
Continuous
 62
     7
370
    25
100
AcDbLine
 10
-63.8063061
 20
42.9140330545
 30
0.0
 11
-51.6947211342
 21
45.1608724264
 31
0.0
  0
LINE
  5
35C
330
2AD
100
AcDbEntity
  8
0
  6
Continuous
 62
     7
370
    25
100
AcDbLine
 10
29.9560530853
 20
-15.0973647802
 30
0.0
 11
-63.8063061
 21
39.0304930337
 31
0.0
  0
LINE
  5
35D
330
2AD
100
AcDbEntity
  8
0
  6
Continuous
 62
     7
370
    25
100
AcDbLine
 10
52.2499757002
 20
-14.8451237926
 30
0.0
 11
40.1383907344
 21
-17.0919631644
 31
0.0
  0
LINE
  5
35E
330
2AD
100
AcDbEntity
  8
0
  6
Continuous
 62
     7
370
    25
100
AcDbLine
 10
52.2499757002
 20
-14.8451237926
 30
0.0
 11
54.9369814687
 21
-16.396299205
 31
0.0
  0
LINE
  5
35F
330
2AD
100
AcDbEntity
  8
0
  6
Continuous
 62
     7
370
    25
100
AcDbLine
 10
27.9307178569
 20
-16.3482010568
 30
0.0
 11
-67.5286976033
 21
38.7593464912
 31
0.0
  0
LINE
  5
360
330
2AD
100
AcDbEntity
  8
0
  6
Continuous
 62
     7
370
    25
100
AcDbLine
 10
-67.5286976033
 20
33.7822574981
 30
0.0
 11
27.9307178569
 21
-21.3252900499
 31
0.0
  0
LINE
  5
361
330
2AD
100
AcDbEntity
  8
0
  6
Continuous
 62
     7
370
    25
100
AcDbLine
 10
-67.5286976033
 20
38.7593464912
 30
0.0
 11
-67.5286976033
 21
33.7822574981
 31
0.0
  0
LINE
  5
362
330
2AD
100
AcDbEntity
  8
0
  6
Continuous
 62
     7
370
    25
100
AcDbLine
 10
55.0329665839
 20
-16.6588199049
 30
0.0
 11
42.0728534806
 21
-19.0630710798
 31
0.0
  0
LINE
  5
363
330
2AD
100
AcDbEntity
  8
0
  6
Continuous
 62
     7
370
    25
100
AcDbLine
 10
42.0728534806
 20
-25.1826632898
 30
0.0
 11
54.3274941691
 21
-24.9297299727
 31
0.0
  0
LINE
  5
364
330
2AD
100
AcDbEntity
  8
0
  6
Continuous
 62
     7
370
    25
100
AcDbLine
 10
66.1144840409
 20
-24.9412412762
 30
0.0
 11
66.1144840409
 21
-12.1925082375
 31
0.0
  0
LINE
  5
365
330
2AD
100
AcDbEntity
  8
0
  6
Continuous
 62
     7
370
    25
100
AcDbLine
 10
60.596634615
 20
-28.1266279469
 30
0.0
 11
66.1144840409
 21
-24.9412412762
 31
0.0
  0
LINE
  5
366
330
2AD
100
AcDbEntity
  8
0
  6
Continuous
 62
     7
370
    25
100
AcDbLine
 10
-33.3186992745
 20
48.1334211397
 30
0.0
 11
60.4436599108
 21
-5.9944366742
 31
0.0
  0
LINE
  5
367
330
2AD
100
AcDbEntity
  8
0
  6
Continuous
 62
     7
370
    25
100
AcDbLine
 10
65.9320208137
 20
-0.7798438066
 30
0.0
 11
-26.6989675218
 21
52.6948875177
 31
0.0
  0
LINE
  5
368
330
2AD
100
AcDbEntity
  8
0
  6
Continuous
 62
     7
370
    25
100
AcDbLine
 10
66.0708589286
 20
-0.7380079027
 30
0.0
 11
66.073054558
 21
-0.7392209403
 31
0.0
  0
LINE
  5
369
330
2AD
100
AcDbEntity
  8
0
  6
Continuous
 62
     7
370
    25
100
AcDbLine
 10
57.6268686947
 20
-26.5809842896
 30
0.0
 11
60.3138744632
 21
-28.1321597021
 31
0.0
  0
LINE
  5
36A
330
2AD
100
AcDbEntity
  8
0
  6
Continuous
 62
     7
370
    25
100
AcDbLine
 10
60.3162084352
 20
-6.2305222835
 30
0.0
 11
-33.4461507501
 21
47.8973355304
 31
0.0
  0
LINE
  5
36B
330
2AD
100
AcDbEntity
  8
0
  6
Continuous
 62
     7
370
    25
100
AcDbLine
 10
-33.4461507501
 20
47.8973355304
 30
0.0
 11
-33.4461507501
 21
34.9831141316
 31
0.0
  0
LINE
  5
36C
330
2AD
100
AcDbEntity
  8
0
  6
Continuous
 62
     7
370
    25
100
AcDbLine
 10
-51.5987360191
 20
44.8983517265
 30
0.0
 11
-63.7103209849
 21
42.6515123546
 31
0.0
  0
LINE
  5
36D
330
2AD
100
AcDbEntity
  8
0
  6
Continuous
 62
     7
370
    25
100
AcDbLine
 10
-43.3456456867
 20
34.9831141316
 30
0.0
 11
-43.3456456867
 21
47.7873210159
 31
0.0
  0
LINE
  5
36E
330
2AD
100
AcDbEntity
  8
0
  6
Continuous
 62
     7
370
    25
100
AcDbLine
 10
-46.0350679879
 20
33.4305436845
 30
0.0
 11
-43.3456456867
 21
34.9831141316
 31
0.0
  0
LINE
  5
36F
330
2AD
100
AcDbEntity
  8
0
  6
Continuous
 62
     7
370
    25
100
AcDbLine
 10
-49.0048339082
 20
34.9761873418
 30
0.0
 11
-46.3178281397
 21
33.4250119294
 31
0.0
  0
LINE
  5
370
330
2AD
100
AcDbEntity
  8
0
  6
Continuous
 62
     8
370
    25
100
AcDbLine
 10
60.3162084352
 20
-11.9837064852
 30
0.0
 11
60.3162084352
 21
-6.2305222835
 31
0.0
  0
LINE
  5
371
330
2AD
100
AcDbEntity
  8
0
  6
Continuous
 62
     8
370
    25
100
AcDbLine
 10
-33.4461507501
 20
34.9831141316
 30
0.0
 11
52.6575945721
 21
-14.7235200074
 31
0.0
  0
LINE
  5
372
330
2AD
100
AcDbEntity
  8
0
  6
Continuous
 62
     8
370
    25
100
AcDbLine
 10
-63.7103209849
 20
42.6515123546
 30
0.0
 11
-63.7103209849
 21
38.998906186
 31
0.0
  0
LINE
  5
373
330
2AD
100
AcDbEntity
  8
0
  6
Continuous
 62
     8
370
    25
100
AcDbLine
 10
-59.3504540323
 20
36.4820085679
 30
0.0
 11
-52.3042084338
 21
36.6274416587
 31
0.0
  0
ARC
  5
374
330
2AD
100
AcDbEntity
  8
0
  6
Continuous
 62
     7
370
    25
100
AcDbCircle
 10
60.4552132587
 20
-28.0449871357
 30
0.0
 40
0.2000000000000219
100
AcDbArc
 50
240.0026882664
 51
299.9973117336
  0
ARC
  5
375
330
2AD
100
AcDbEntity
  8
0
  6
Continuous
 62
     7
370
    25
100
AcDbCircle
 10
57.7682074902
 20
-26.4938117233
 30
0.0
 40
0.2000000000000789
100
AcDbArc
 50
181.725119075
 51
240.0026882663
  0
ARC
  5
376
330
2AD
100
AcDbEntity
  8
0
  6
Continuous
 62
     7
370
    25
100
AcDbCircle
 10
-46.1764893442
 20
33.5121844957
 30
0.0
 40
0.1999999999999951
100
AcDbArc
 50
240.0026882663
 51
299.9973117337
  0
ARC
  5
377
330
2AD
100
AcDbEntity
  8
0
  6
Continuous
 62
     7
370
    25
100
AcDbCircle
 10
-48.8634951127
 20
35.0633599082
 30
0.0
 40
0.2000000000000498
100
AcDbArc
 50
181.725119075
 51
240.0026882663
  0
ARC
  5
378
330
2AD
100
AcDbEntity
  8
0
  6
Continuous
 62
     7
370
    25
100
AcDbCircle
 10
39.190460502
 20
4.1137538375
 30
0.0
 40
23.35537202727173
100
AcDbArc
 50
241.1770237989
 51
277.0892078703
  0
ARC
  5
379
330
2AD
100
AcDbEntity
  8
0
  6
Continuous
 62
     7
370
    25
100
AcDbCircle
 10
28.2145522263
 20
-16.3524680291
 30
0.0
 40
0.283866441018567
100
AcDbArc
 50
109.9761019246
 51
179.1387192251
  0
ARC
  5
37A
330
2AD
100
AcDbEntity
  8
0
  6
Continuous
 62
     7
370
    25
100
AcDbCircle
 10
39.2526936562
 20
4.0256342474
 30
0.0
 40
22.98816722766064
100
AcDbArc
 50
241.0278276199
 51
276.8057342298
  0
ARC
  5
37B
330
2AD
100
AcDbEntity
  8
0
  6
Continuous
 62
     7
370
    25
100
AcDbCircle
 10
41.8369912788
 20
-19.0005012729
 30
0.0
 40
0.2440204069023522
100
AcDbArc
 50
345.1427198421
 51
55.0250106014
  0
ARC
  5
37C
330
2AD
100
AcDbEntity
  8
0
  6
Continuous
 62
     7
370
    25
100
AcDbCircle
 10
42.7981447781
 20
5.3295077475
 30
0.0
 40
30.52079010894603
100
AcDbArc
 50
240.8482371778
 51
268.6383038456
  0
ARC
  5
37D
330
2AD
100
AcDbEntity
  8
0
  6
Continuous
 62
     7
370
    25
100
AcDbCircle
 10
38.1621726238
 20
-0.192976605
 30
0.0
 40
17.01414660674699
100
AcDbArc
 50
241.163517424
 51
276.6700444257
  0
ARC
  5
37E
330
2AD
100
AcDbEntity
  8
0
  6
Continuous
 62
     7
370
    25
100
AcDbCircle
 10
41.933504236
 20
-25.1765895928
 30
0.0
 40
0.1244072725134254
100
AcDbArc
 50
239.3182430186
 51
270.946459264
  0
ARC
  5
37F
330
2AD
100
AcDbEntity
  8
0
  6
Continuous
 62
     7
370
    25
100
AcDbCircle
 10
42.9833631738
 20
5.5430362433
 30
0.0
 40
30.84671618231221
100
AcDbArc
 50
240.9620885425
 51
267.9315935038
  0
ARC
  5
380
330
2AD
100
AcDbEntity
  8
0
  6
Continuous
 62
     7
370
    25
100
AcDbCircle
 10
28.00784915
 20
-21.3538120376
 30
0.0
 40
0.0724537102349173
100
AcDbArc
 50
240.4782859675
 51
272.2788600441
  0
ARC
  5
381
330
2AD
100
AcDbEntity
  8
0
  6
Continuous
 62
     7
370
    25
100
AcDbCircle
 10
40.0763298154
 20
-17.1937325858
 30
0.0
 40
0.1191997181171542
100
AcDbArc
 50
58.6243708944
 51
99.5885158243
  0
ARC
  5
382
330
2AD
100
AcDbEntity
  8
0
  6
Continuous
 62
     7
370
    25
100
AcDbCircle
 10
29.9730762928
 20
-15.1741383225
 30
0.0
 40
0.0786381993233219
100
AcDbArc
 50
61.4921078517
 51
102.5020791902
  0
ARC
  5
383
330
2AD
100
AcDbEntity
  8
0
  6
Continuous
 62
     7
370
    25
100
AcDbCircle
 10
-67.2448632339
 20
38.755079519
 30
0.0
 40
0.2838664410185376
100
AcDbArc
 50
109.9761019246
 51
179.1387192251
  0
ARC
  5
384
330
2AD
100
AcDbEntity
  8
0
  6
Continuous
 62
     7
370
    25
100
AcDbCircle
 10
54.7971043821
 20
-16.596250098
 30
0.0
 40
0.2440204069023384
100
AcDbArc
 50
345.1427198421
 51
55.0250106015
  0
ARC
  5
385
330
2AD
100
AcDbEntity
  8
0
  6
Continuous
 62
     7
370
    25
100
AcDbCircle
 10
54.7780960335
 20
-42.7334914104
 30
0.0
 40
17.80946274798618
100
AcDbArc
 50
76.7828591638
 51
91.4498101805
  0
ARC
  5
386
330
2AD
100
AcDbEntity
  8
0
  6
Continuous
 62
     7
370
    25
100
AcDbCircle
 10
48.3366498806
 20
15.9361590882
 30
0.0
 40
33.27571656558207
100
AcDbArc
 50
281.6093246598
 51
302.2936381486
  0
ARC
  5
387
330
2AD
100
AcDbEntity
  8
0
  6
Continuous
 62
     7
370
    25
100
AcDbCircle
 10
58.0011392687
 20
-27.8626818538
 30
0.0
 40
2.608881682368973
100
AcDbArc
 50
354.1933295991
 51
71.0097253633
  0
ARC
  5
388
330
2AD
100
AcDbEntity
  8
0
  6
Continuous
 62
     7
370
    25
100
AcDbCircle
 10
-57.6449880685
 20
75.3334743562
 30
0.0
 40
30.7537247143126
100
AcDbArc
 50
281.1560119744
 51
297.4288756892
  0
ARC
  5
389
330
2AD
100
AcDbEntity
  8
0
  6
Continuous
 62
     7
370
    25
100
AcDbCircle
 10
-61.0482328686
 20
79.1619201409
 30
0.0
 40
33.12757935940616
100
AcDbArc
 50
281.6093246598
 51
302.2936381486
  0
ARC
  5
38A
330
2AD
100
AcDbEntity
  8
0
  6
Continuous
 62
     7
370
    25
100
AcDbCircle
 10
48.2704755029
 20
16.053573097
 30
0.0
 40
33.12757935940544
100
AcDbArc
 50
281.6093246598
 51
302.2936381486
  0
ARC
  5
38B
330
2AD
100
AcDbEntity
  8
0
  6
Continuous
 62
     7
370
    25
100
AcDbCircle
 10
46.2997087659
 20
15.3274781372
 30
0.0
 40
30.75372471431337
100
AcDbArc
 50
281.1560119744
 51
297.4288756892
  0
ARC
  5
38C
330
2AD
100
AcDbEntity
  8
0
  6
Continuous
 62
     7
370
    25
100
AcDbCircle
 10
65.8003525156
 20
-12.2158097036
 30
0.0
 40
0.3149945611392191
100
AcDbArc
 50
4.2422837191
 51
57.5933082301
  0
ARC
  5
38D
330
2AD
100
AcDbEntity
  8
0
  6
Continuous
 62
     7
370
    25
100
AcDbCircle
 10
58.6945208713
 20
-25.3458326315
 30
0.0
 40
0.1633935480890315
100
AcDbArc
 50
245.5913618653
 51
342.1961868466
  0
ARC
  5
38E
330
2AD
100
AcDbEntity
  8
0
  6
Continuous
 62
     7
370
    25
100
AcDbCircle
 10
54.5732471183
 20
-42.7546574324
 30
0.0
 40
17.7296848340526
100
AcDbArc
 50
76.7828591638
 51
91.4498101805
  0
ARC
  5
38F
330
2AD
100
AcDbEntity
  8
0
  6
Continuous
 62
     7
370
    25
100
AcDbCircle
 10
64.6098417633
 20
-19.8163214758
 30
0.0
 40
5.024467439514718
100
AcDbArc
 50
313.1028488849
 51
357.4165943419
  0
ARC
  5
390
330
2AD
100
AcDbEntity
  8
0
  6
Continuous
 62
     7
370
    25
100
AcDbCircle
 10
60.6269471179
 20
-6.245830107
 30
0.0
 40
0.3111155064776331
100
AcDbArc
 50
126.0952328224
 51
177.1797356861
  0
ARC
  5
391
330
2AD
100
AcDbEntity
  8
0
  6
Continuous
 62
     7
370
    25
100
AcDbCircle
 10
60.4501091974
 20
-27.866385509
 30
0.0
 40
0.2986567000662048
100
AcDbArc
 50
242.8605135785
 51
299.3810031014
  0
ARC
  5
392
330
2AD
100
AcDbEntity
  8
0
  6
Continuous
 62
     7
370
    25
100
AcDbCircle
 10
58.1896055249
 20
-27.3536199628
 30
0.0
 40
1.909760755139754
100
AcDbArc
 50
47.4598621737
 51
76.7599737089
  0
ARC
  5
393
330
2AD
100
AcDbEntity
  8
0
  6
Continuous
 62
     7
370
    25
100
AcDbCircle
 10
-33.1354120675
 20
47.8820277068
 30
0.0
 40
0.3111155064775477
100
AcDbArc
 50
126.0952328224
 51
177.1797356861
  0
ARC
  5
394
330
2AD
100
AcDbEntity
  8
0
  6
Continuous
 62
     7
370
    25
100
AcDbCircle
 10
-26.601192072
 20
52.6205631064
 30
0.0
 40
0.1228175748942577
100
AcDbArc
 50
69.3770945785
 51
142.7595689121
  0
ARC
  5
395
330
2AD
100
AcDbEntity
  8
0
  6
Continuous
 62
     7
370
    25
100
AcDbCircle
 10
-67.3694055494
 20
37.447272232
 30
0.0
 40
3.16941221747744
100
AcDbArc
 50
192.9964752628
 51
241.6778904884
  0
ARC
  5
396
330
2AD
100
AcDbEntity
  8
0
  6
Continuous
 62
     7
370
    25
100
AcDbCircle
 10
-63.9461831867
 20
42.7140821616
 30
0.0
 40
0.2440204069023265
100
AcDbArc
 50
345.1427198421
 51
55.0250106014
  0
ARC
  5
397
330
2AD
100
AcDbEntity
  8
0
  6
Continuous
 62
     7
370
    25
100
AcDbCircle
 10
-51.8345982209
 20
44.9609215334
 30
0.0
 40
0.2440204069023456
100
AcDbArc
 50
345.1427198421
 51
55.0250106015
  0
ARC
  5
398
330
2AD
100
AcDbEntity
  8
0
  6
Continuous
 62
     7
370
    25
100
AcDbCircle
 10
-51.8536065694
 20
18.823680221
 30
0.0
 40
17.80946274798549
100
AcDbArc
 50
76.7828591638
 51
91.4498101805
  0
ARC
  5
399
330
2AD
100
AcDbEntity
  8
0
  6
Continuous
 62
     7
370
    25
100
AcDbCircle
 10
-57.5756108715
 20
75.2058770355
 30
0.0
 40
30.89124671099349
100
AcDbArc
 50
281.1560119744
 51
297.4288756892
  0
ARC
  5
39A
330
2AD
100
AcDbEntity
  8
0
  6
Continuous
 62
     7
370
    25
100
AcDbCircle
 10
-48.6305633342
 20
33.6944897777
 30
0.0
 40
2.60888168236897
100
AcDbArc
 50
354.1933295991
 51
71.0097253633
  0
ARC
  5
39B
330
2AD
100
AcDbEntity
  8
0
  6
Continuous
 62
     7
370
    25
100
AcDbCircle
 10
-43.6377279419
 20
47.7921519245
 30
0.0
 40
0.2921222029803228
100
AcDbArc
 50
359.0524400836
 51
56.9403941965
  0
ARC
  5
39C
330
2AD
100
AcDbEntity
  8
0
  6
Continuous
 62
     7
370
    25
100
AcDbCircle
 10
-38.3958982184
 20
25.4301365369
 30
0.0
 40
10.75915335538208
100
AcDbArc
 50
62.6096722366
 51
117.3903277634
  0
ARC
  5
39D
330
2AD
100
AcDbEntity
  8
0
  6
Continuous
 62
     7
370
    25
100
AcDbCircle
 10
-52.0584554846
 20
18.802514199
 30
0.0
 40
17.72968483405291
100
AcDbArc
 50
76.7828591638
 51
91.4498101805
  0
ARC
  5
39E
330
2AD
100
AcDbEntity
  8
0
  6
Continuous
 62
     7
370
    25
100
AcDbCircle
 10
-47.9371817316
 20
36.2113389999
 30
0.0
 40
0.1633935480890398
100
AcDbArc
 50
245.5913618653
 51
342.1961868466
  0
ARC
  5
39F
330
2AD
100
AcDbEntity
  8
0
  6
Continuous
 62
     7
370
    25
100
AcDbCircle
 10
-46.1815934055
 20
33.6907861224
 30
0.0
 40
0.2986567000661854
100
AcDbArc
 50
242.8605135785
 51
299.3810031014
  0
ARC
  5
3A0
330
2AD
100
AcDbEntity
  8
0
  6
Continuous
 62
     7
370
    25
100
AcDbCircle
 10
-48.442097078
 20
34.2035516686
 30
0.0
 40
1.909760755139795
100
AcDbArc
 50
47.4598621737
 51
76.7599737089
  0
ARC
  5
3A1
330
2AD
100
AcDbEntity
  8
0
  6
Continuous
 62
     7
370
    25
100
AcDbCircle
 10
-38.4101186408
 20
24.8349490624
 30
0.0
 40
11.30200165164632
100
AcDbArc
 50
64.7769859541
 51
113.0731742011
  0
ARC
  5
3A2
330
2AD
100
AcDbEntity
  8
0
  6
Continuous
 62
     8
370
    25
100
AcDbCircle
 10
41.9203469434
 20
-25.1445113635
 30
0.0
 40
0.1572062764963607
100
AcDbArc
 50
275.5529868661
 51
345.9548137472
  0
ARC
  5
3A3
330
2AD
100
AcDbEntity
  8
0
  6
Continuous
 62
     8
370
    25
100
AcDbCircle
 10
28.0301831172
 20
-21.3354446268
 30
0.0
 40
0.0999822656558565
100
AcDbArc
 50
174.1707729796
 51
234.517046627
  0
ARC
  5
3A4
330
2AD
100
AcDbEntity
  8
0
  6
Continuous
 62
     8
370
    25
100
AcDbCircle
 10
-67.429232343
 20
33.7721029213
 30
0.0
 40
0.0999822656558024
100
AcDbArc
 50
174.1707729796
 51
234.517046627
  0
ARC
  5
3A5
330
2AD
100
AcDbEntity
  8
0
  6
Continuous
 62
     8
370
    25
100
AcDbCircle
 10
-63.7892828925
 20
38.9537194914
 30
0.0
 40
0.078638199323256
100
AcDbArc
 50
61.4921078517
 51
102.5020791902
  0
ARC
  5
3A6
330
2AD
100
AcDbEntity
  8
0
  6
Continuous
 62
     8
370
    25
100
AcDbCircle
 10
52.1879147812
 20
-14.946893214
 30
0.0
 40
0.1191997181172613
100
AcDbArc
 50
58.6243708944
 51
99.5885158243
  0
ARC
  5
3A7
330
2AD
100
AcDbEntity
  8
0
  6
Continuous
 62
     8
370
    25
100
AcDbCircle
 10
54.174987632
 20
-24.8915780463
 30
0.0
 40
0.1572062764963741
100
AcDbArc
 50
275.5529868662
 51
345.9548137472
  0
ARC
  5
3A8
330
2AD
100
AcDbEntity
  8
0
  6
Continuous
 62
     8
370
    25
100
AcDbCircle
 10
60.4072924875
 20
-12.0541721639
 30
0.0
 40
0.1036168416205637
100
AcDbArc
 50
55.2694597017
 51
112.628340831
  0
ARC
  5
3A9
330
2AD
100
AcDbEntity
  8
0
  6
Continuous
 62
     8
370
    25
100
AcDbCircle
 10
66.0305067344
 20
-0.8553881782
 30
0.0
 40
0.1241226355757272
100
AcDbArc
 50
71.0284028794
 51
142.5097169631
  0
ARC
  5
3AA
330
2AD
100
AcDbEntity
  8
0
  6
Continuous
 62
     8
370
    25
100
AcDbCircle
 10
61.6565524068
 20
-17.0327348375
 30
0.0
 40
9.078415530533288
100
AcDbArc
 50
299.409442279
 51
314.7075405789
  0
ARC
  5
3AB
330
2AD
100
AcDbEntity
  8
0
  6
Continuous
 62
     8
370
    25
100
AcDbCircle
 10
57.3253767183
 20
-28.0196383236
 30
0.0
 40
2.990615293204396
100
AcDbArc
 50
357.84374735
 51
43.8850957759
  0
ARC
  5
3AC
330
2AD
100
AcDbEntity
  8
0
  6
Continuous
 62
     8
370
    25
100
AcDbCircle
 10
53.7883013212
 20
-26.6336741291
 30
0.0
 40
3.838928978247976
100
AcDbArc
 50
0.7864173147
 51
21.2119118085
  0
ARC
  5
3AD
330
2AD
100
AcDbEntity
  8
0
  6
Continuous
 62
     8
370
    25
100
AcDbCircle
 10
57.6698094261
 20
-26.4883016532
 30
0.0
 40
0.1021468428862961
100
AcDbArc
 50
186.364849282
 51
245.1412698605
  0
ARC
  5
3AE
330
2AD
100
AcDbEntity
  8
0
  6
Continuous
 62
     8
370
    25
100
AcDbCircle
 10
60.4112502408
 20
-28.1383174532
 30
0.0
 40
0.0975702821234595
100
AcDbArc
 50
176.3816053905
 51
234.9535044864
  0
ARC
  5
3AF
330
2AD
100
AcDbEntity
  8
0
  6
Continuous
 62
     8
370
    25
100
AcDbCircle
 10
60.4986342345
 20
-28.1374452944
 30
0.0
 40
0.098595586020818
100
AcDbArc
 50
305.013332882
 51
6.2988475114
  0
ARC
  5
3B0
330
2AD
100
AcDbEntity
  8
0
  6
Continuous
 62
     8
370
    25
100
AcDbCircle
 10
66.0164836604
 20
-24.9520586236
 30
0.0
 40
0.0985955860507713
100
AcDbArc
 50
305.0133328923
 51
6.2988475011
  0
ARC
  5
3B1
330
2AD
100
AcDbEntity
  8
0
  6
Continuous
 62
     8
370
    25
100
AcDbCircle
 10
57.7242444723
 20
-26.5871420408
 30
0.0
 40
0.0975702821234627
100
AcDbArc
 50
176.3816053905
 51
234.9535044864
  0
ARC
  5
3B2
330
2AD
100
AcDbEntity
  8
0
  6
Continuous
 62
     8
370
    25
100
AcDbCircle
 10
-33.3510136389
 20
34.9710013259
 30
0.0
 40
0.0959051093041927
100
AcDbArc
 50
172.744170446
 51
235.9436491606
  0
ARC
  5
3B3
330
2AD
100
AcDbEntity
  8
0
  6
Continuous
 62
     8
370
    25
100
AcDbCircle
 10
-62.5024399681
 20
47.6947001538
 30
0.0
 40
10.25201496737665
100
AcDbArc
 50
229.6759300626
 51
240.6416560916
  0
ARC
  5
3B4
330
2AD
100
AcDbEntity
  8
0
  6
Continuous
 62
     8
370
    25
100
AcDbCircle
 10
-67.40390142
 20
44.2060259312
 30
0.0
 40
0.1192010954217352
100
AcDbArc
 50
58.6244959284
 51
99.5831913953
  0
ARC
  5
3B5
330
2AD
100
AcDbEntity
  8
0
  6
Continuous
 62
     8
370
    25
100
AcDbCircle
 10
-61.0666389745
 20
45.1809446384
 30
0.0
 40
13.10298707338141
100
AcDbArc
 50
233.4321429252
 51
240.4505556813
  0
ARC
  5
3B6
330
2AD
100
AcDbEntity
  8
0
  6
Continuous
 62
     8
370
    25
100
AcDbCircle
 10
-63.4097667661
 20
39.5267415369
 30
0.0
 40
3.139191854853754
100
AcDbArc
 50
95.494059349
 51
131.1068900825
  0
ARC
  5
3B7
330
2AD
100
AcDbEntity
  8
0
  6
Continuous
 62
     8
370
    25
100
AcDbCircle
 10
-54.4437878217
 20
46.6102784175
 30
0.0
 40
0.1191997181171309
100
AcDbArc
 50
58.6243708944
 51
99.5885158243
  0
ARC
  5
3B8
330
2AD
100
AcDbEntity
  8
0
  6
Continuous
 62
     8
370
    25
100
AcDbCircle
 10
-52.456714971
 20
36.6655935851
 30
0.0
 40
0.1572062764963844
100
AcDbArc
 50
275.5529868662
 51
345.9548137472
  0
ARC
  5
3B9
330
2AD
100
AcDbEntity
  8
0
  6
Continuous
 62
     8
370
    25
100
AcDbCircle
 10
-43.4085267193
 20
51.0765969557
 30
0.0
 40
0.1009128206670706
100
AcDbArc
 50
54.2316902133
 51
112.1598573293
  0
ARC
  5
3BA
330
2AD
100
AcDbEntity
  8
0
  6
Continuous
 62
     8
370
    25
100
AcDbCircle
 10
-49.3063258846
 20
33.5375333078
 30
0.0
 40
2.99061529320426
100
AcDbArc
 50
357.84374735
 51
43.8850957759
  0
ARC
  5
3BB
330
2AD
100
AcDbEntity
  8
0
  6
Continuous
 62
     8
370
    25
100
AcDbCircle
 10
-52.8434012817
 20
34.9234975023
 30
0.0
 40
3.838928978247954
100
AcDbArc
 50
0.7864173147
 51
21.2119118085
  0
ARC
  5
3BC
330
2AD
100
AcDbEntity
  8
0
  6
Continuous
 62
     8
370
    25
100
AcDbCircle
 10
-43.4457993543
 20
34.9732640827
 30
0.0
 40
0.1006368748539127
100
AcDbArc
 50
305.7375030904
 51
5.6169394881
  0
ARC
  5
3BD
330
2AD
100
AcDbEntity
  8
0
  6
Continuous
 62
     8
370
    25
100
AcDbCircle
 10
-48.9617311517
 20
35.0690595889
 30
0.0
 40
0.1023870201652208
100
AcDbArc
 50
186.8455162757
 51
245.1036065196
  0
ARC
  5
3BE
330
2AD
100
AcDbEntity
  8
0
  6
Continuous
 62
     8
370
    25
100
AcDbCircle
 10
-46.1302050991
 20
33.4184308788
 30
0.0
 40
0.0959051092332115
100
AcDbArc
 50
304.0563508133
 51
7.2558295801
  0
ARC
  5
3BF
330
2AD
100
AcDbEntity
  8
0
  6
Continuous
 62
     8
370
    25
100
AcDbCircle
 10
-46.2204523621
 20
33.4188541782
 30
0.0
 40
0.0975702821234601
100
AcDbArc
 50
176.3816053905
 51
234.9535044864
  0
ARC
  5
3C0
330
2AD
100
AcDbEntity
  8
0
  6
Continuous
 62
     8
370
    25
100
AcDbCircle
 10
-48.9074581306
 20
34.9700295907
 30
0.0
 40
0.0975702821234734
100
AcDbArc
 50
176.3816053905
 51
234.9535044864
  0
VIEWPORT
  5
3C7
330
2AD
100
AcDbEntity
  8
0
100
AcDbViewport
 10
0.0
 20
0.0
 30
0.0
 40
205.6
 41
156.0
 68
     1
 69
     1
 12
0.0
 22
0.0
 13
0.0
 23
0.0
 14
10.0
 24
10.0
 15
10.0
 25
10.0
 16
0.0
 26
0.0
 36
1.0
 17
0.0
 27
0.0
 37
0.0
 42
50.0
 43
0.0
 44
0.0
 45
119.9591439689
 50
0.0
 51
0.0
 72
   100
 90
   557152
  1

281
     0
 71
     1
 74
     0
110
0.0
120
0.0
130
0.0
111
1.0
121
0.0
131
0.0
112
0.0
122
1.0
132
0.0
 79
     0
146
0.0
  0
ENDBLK
  5
2B0
330
2AD
100
AcDbEntity
  8
0
100
AcDbBlockEnd
  0
ENDSEC
  0
SECTION
  2
ENTITIES
  0
LWPOLYLINE
  5
76
330
1F
100
AcDbEntity
  8
0
  6
Continuous
 62
     7
370
    25
100
AcDbPolyline
 90
        9
 70
   128
 43
0.0
 10
77.5
 20
-18.0
 10
77.4961570561
 20
-17.9874641693
 10
77.4847759065
 20
-17.9754100835
 10
77.4662939225
 20
-17.9643009744
 10
77.4414213562
 20
-17.9545637589
 10
77.4111140466
 20
-17.9465726326
 10
77.3765366865
 20
-17.9406346901
 10
77.3390180644
 20
-17.9369781232
 10
77.3
 20
-17.9357434516
  0
LWPOLYLINE
  5
7B
330
1F
100
AcDbEntity
  8
0
  6
Continuous
 62
     7
370
    25
100
AcDbPolyline
 90
        9
 70
   128
 43
0.0
 10
-77.5
 20
-18.0
 10
-77.4961570561
 20
-17.9874641693
 10
-77.4847759065
 20
-17.9754100835
 10
-77.4662939225
 20
-17.9643009744
 10
-77.4414213562
 20
-17.9545637589
 10
-77.4111140466
 20
-17.9465726326
 10
-77.3765366865
 20
-17.9406346901
 10
-77.3390180644
 20
-17.9369781232
 10
-77.3
 20
-17.9357434516
  0
LWPOLYLINE
  5
88
330
1F
100
AcDbEntity
  8
0
  6
Continuous
 62
     7
370
    25
100
AcDbPolyline
 90
        9
 70
   128
 43
0.0
 10
-73.3
 20
-16.8
 10
-73.3038429439
 20
-16.7874641693
 10
-73.3152240935
 20
-16.7754100835
 10
-73.3337060775
 20
-16.7643009744
 10
-73.3585786438
 20
-16.7545637589
 10
-73.3888859534
 20
-16.7465726326
 10
-73.4234633135
 20
-16.7406346901
 10
-73.4609819356
 20
-16.7369781232
 10
-73.5
 20
-16.7357434516
  0
LWPOLYLINE
  5
8C
330
1F
100
AcDbEntity
  8
0
  6
Continuous
 62
     7
370
    25
100
AcDbPolyline
 90
        9
 70
   128
 43
0.0
 10
73.3
 20
-16.8
 10
73.3038429439
 20
-16.7874641693
 10
73.3152240935
 20
-16.7754100835
 10
73.3337060775
 20
-16.7643009744
 10
73.3585786438
 20
-16.7545637589
 10
73.3888859534
 20
-16.7465726326
 10
73.4234633135
 20
-16.7406346901
 10
73.4609819356
 20
-16.7369781232
 10
73.5
 20
-16.7357434516
  0
LWPOLYLINE
  5
8E
330
1F
100
AcDbEntity
  8
0
  6
Continuous
 62
     7
370
    25
100
AcDbPolyline
 90
        9
 70
   128
 43
0.0
 10
-77.3
 20
0.3926242689
 10
-77.3390180644
 20
0.3913895974
 10
-77.3765366865
 20
0.3877330304
 10
-77.4111140466
 20
0.3817950879
 10
-77.4414213562
 20
0.3738039616
 10
-77.4662939225
 20
0.3640667461
 10
-77.4847759065
 20
0.352957637
 10
-77.4961570561
 20
0.3409035513
 10
-77.5
 20
0.3283677205
  0
LWPOLYLINE
  5
90
330
1F
100
AcDbEntity
  8
0
  6
Continuous
 62
     7
370
    25
100
AcDbPolyline
 90
        9
 70
   128
 43
0.0
 10
77.5
 20
0.3283677205
 10
77.4961570561
 20
0.3409035513
 10
77.4847759065
 20
0.352957637
 10
77.4662939225
 20
0.3640667461
 10
77.4414213562
 20
0.3738039616
 10
77.4111140466
 20
0.3817950879
 10
77.3765366865
 20
0.3877330304
 10
77.3390180644
 20
0.3913895974
 10
77.3
 20
0.3926242689
  0
LWPOLYLINE
  5
92
330
1F
100
AcDbEntity
  8
0
  6
Continuous
 62
     7
370
    25
100
AcDbPolyline
 90
        9
 70
   128
 43
0.0
 10
73.5
 20
0.3926242689
 10
73.4609819356
 20
0.3913895974
 10
73.4234633135
 20
0.3877330304
 10
73.3888859534
 20
0.3817950879
 10
73.3585786438
 20
0.3738039616
 10
73.3337060775
 20
0.3640667461
 10
73.3152240935
 20
0.352957637
 10
73.3038429439
 20
0.3409035513
 10
73.3
 20
0.3283677205
  0
LWPOLYLINE
  5
94
330
1F
100
AcDbEntity
  8
0
  6
Continuous
 62
     7
370
    25
100
AcDbPolyline
 90
        9
 70
   128
 43
0.0
 10
-73.3
 20
0.3283677205
 10
-73.3038429439
 20
0.3409035513
 10
-73.3152240935
 20
0.352957637
 10
-73.3337060775
 20
0.3640667461
 10
-73.3585786438
 20
0.3738039616
 10
-73.3888859534
 20
0.3817950879
 10
-73.4234633135
 20
0.3877330304
 10
-73.4609819356
 20
0.3913895974
 10
-73.5
 20
0.3926242689
  0
SPLINE
  5
96
330
1F
100
AcDbEntity
  8
0
  6
Continuous
 62
     7
370
    25
100
AcDbSpline
210
0.0
220
0.0
230
1.0
 70
     8
 71
     3
 72
    27
 73
    23
 74
     0
 42
0.000000001
 43
0.00000001
 40
0.0
 40
0.0
 40
0.0
 40
0.0
 40
0.1250000000000005
 40
0.1250000000000005
 40
0.1875000000000005
 40
0.1875000000000005
 40
0.2500000000000005
 40
0.2500000000000005
 40
0.3750000000000009
 40
0.3750000000000009
 40
0.500000000000001
 40
0.500000000000001
 40
0.625000000000001
 40
0.625000000000001
 40
0.6875000000000008
 40
0.6875000000000008
 40
0.7500000000000006
 40
0.8125000000000004
 40
0.8125000000000004
 40
0.8750000000000002
 40
0.8750000000000002
 40
1.0
 40
1.0
 40
1.0
 40
1.0
 10
-73.49999999999999
 20
12.0122966456185
 30
0.0
 10
-73.5
 20
12.48600432830426
 30
0.0
 10
-73.45329271936377
 20
12.95209194135319
 30
0.0
 10
-73.31579412156864
 20
13.64019754497082
 30
0.0
 10
-73.25863874662157
 20
13.86771449342325
 30
0.0
 10
-73.12112661784633
 20
14.3189449660299
 30
0.0
 10
-73.04045278571154
 20
14.54304398497544
 30
0.0
 10
-72.7687925494898
 20
15.19461094751785
 30
0.0
 10
-72.5471554688084
 20
15.60661825136818
 30
0.0
 10
-72.02349369083687
 20
16.38631430334036
 30
0.0
 10
-71.71925753352266
 20
16.7546795632376
 30
0.0
 10
-71.05521335426168
 20
17.41474722668175
 30
0.0
 10
-70.69287142841183
 20
17.71102826083115
 30
0.0
 10
-70.10259810778723
 20
18.10357400735914
 30
0.0
 10
-69.89887824629129
 20
18.22496972172311
 30
0.0
 10
-69.48440073566898
 20
18.44532442229113
 30
0.0
 10
-69.0610029464757
 20
18.64452834960972
 30
0.0
 10
-68.61996831047098
 20
18.80198315517992
 30
0.0
 10
-68.16996312887083
 20
18.93823220882848
 30
0.0
 10
-67.93936759049205
 20
18.99593695549641
 30
0.0
 10
-67.24365830553535
 20
19.1339930432424
 30
0.0
 10
-66.77452309224603
 20
19.18024360530694
 30
0.0
 10
-66.29999999999998
 20
19.18024360530694
 30
0.0
  0
SPLINE
  5
99
330
1F
100
AcDbEntity
  8
0
  6
Continuous
 62
     7
370
    25
100
AcDbSpline
210
0.0
220
0.0
230
1.0
 70
     8
 71
     3
 72
    30
 73
    26
 74
     0
 42
0.000000001
 43
0.00000001
 40
0.0
 40
0.0
 40
0.0
 40
0.0
 40
0.1249999999999991
 40
0.1249999999999991
 40
0.1874999999999986
 40
0.1874999999999986
 40
0.2499999999999981
 40
0.2499999999999981
 40
0.3124999999999977
 40
0.3124999999999977
 40
0.3749999999999972
 40
0.3749999999999972
 40
0.4999999999999962
 40
0.4999999999999962
 40
0.5624999999999964
 40
0.5624999999999964
 40
0.6249999999999967
 40
0.6249999999999967
 40
0.7499999999999986
 40
0.7499999999999986
 40
0.8124999999999991
 40
0.8124999999999991
 40
0.8749999999999996
 40
0.8749999999999996
 40
1.0
 40
1.0
 40
1.0
 40
1.0
 10
-65.49999999999999
 20
27.74195802937927
 30
0.0
 10
-66.28253900757369
 20
27.74195802937927
 30
0.0
 10
-67.05542223189586
 20
27.66522224181026
 30
0.0
 10
-68.20054874979917
 20
27.43673798666199
 30
0.0
 10
-68.57976452182008
 20
27.34130445470086
 30
0.0
 10
-69.31856651760776
 20
27.11649405103566
 30
0.0
 10
-69.68011319677399
 20
26.98678457163198
 30
0.0
 10
-70.38795322327964
 20
26.69350036335433
 30
0.0
 10
-70.73424596302003
 20
26.5299246564028
 30
0.0
 10
-71.41158953976706
 20
26.16861858954516
 30
0.0
 10
-71.74400101228044
 20
25.96996427125353
 30
0.0
 10
-72.70815606391606
 20
25.32723648786018
 30
0.0
 10
-73.29884310728427
 20
24.84327765751147
 30
0.0
 10
-74.11037869057333
 20
24.03612763105162
 30
0.0
 10
-74.36837692239085
 20
23.75343802995232
 30
0.0
 10
-74.8587733930849
 20
23.15983389994854
 30
0.0
 10
-75.09048452350984
 20
22.84936621244751
 30
0.0
 10
-75.73249893233547
 20
21.89496054485831
 30
0.0
 10
-76.0954957022004
 20
21.22212933922057
 30
0.0
 10
-76.54141235258813
 20
20.15638560593249
 30
0.0
 10
-76.6740675624672
 20
19.78950797404398
 30
0.0
 10
-76.90068220473917
 20
19.04929620552575
 30
0.0
 10
-76.99503626231947
 20
18.67569839426838
 30
0.0
 10
-77.22230598246585
 20
17.54455890369941
 30
0.0
 10
-77.3
 20
16.77676862537502
 30
0.0
 10
-77.3
 20
15.99448940100098
 30
0.0
  0
SPLINE
  5
9B
330
1F
100
AcDbEntity
  8
0
  6
Continuous
 62
     7
370
    25
100
AcDbSpline
210
0.0
220
0.0
230
1.0
 70
     8
 71
     3
 72
    28
 73
    24
 74
     0
 42
0.000000001
 43
0.00000001
 40
0.0
 40
0.0
 40
0.0
 40
0.0
 40
0.1250000000000007
 40
0.1250000000000007
 40
0.1875000000000006
 40
0.1875000000000006
 40
0.2500000000000005
 40
0.2500000000000005
 40
0.3750000000000011
 40
0.3750000000000011
 40
0.5000000000000017
 40
0.5000000000000017
 40
0.5625000000000013
 40
0.5625000000000013
 40
0.6250000000000011
 40
0.6250000000000011
 40
0.7500000000000002
 40
0.7500000000000002
 40
0.8125000000000008
 40
0.8125000000000008
 40
0.8750000000000012
 40
0.8750000000000012
 40
1.0
 40
1.0
 40
1.0
 40
1.0
 10
77.30000000000004
 20
15.99448940100098
 30
0.0
 10
77.30000000000005
 20
16.77667643724752
 30
0.0
 10
77.22230809760171
 20
17.54826940968772
 30
0.0
 10
76.99174083322428
 20
18.69019923331798
 30
0.0
 10
76.89529182272895
 20
19.06902176264044
 30
0.0
 10
76.66812929414526
 20
19.80667755672523
 30
0.0
 10
76.53713717849033
 20
20.16738153932297
 30
0.0
 10
76.09325114134565
 20
21.22590861001768
 30
0.0
 10
75.72874783075564
 20
21.9021713329454
 30
0.0
 10
74.86459841416355
 20
23.18349960506594
 30
0.0
 10
74.37710542198597
 20
23.77135459136375
 30
0.0
 10
73.56526282406632
 20
24.57803868823393
 30
0.0
 10
73.28110945756524
 20
24.83431796165137
 30
0.0
 10
72.68486761473268
 20
25.32115212218586
 30
0.0
 10
72.37266832096282
 20
25.55145296826517
 30
0.0
 10
71.41350877235915
 20
26.18909847973428
 30
0.0
 10
70.73796420978377
 20
26.54913552142372
 30
0.0
 10
69.6690709913283
 20
26.99102492548839
 30
0.0
 10
69.30129498596143
 20
27.12241190495753
 30
0.0
 10
68.55903547272463
 20
27.34691500875507
 30
0.0
 10
68.18455212961298
 20
27.44033136206265
 30
0.0
 10
67.0511931577363
 20
27.66524327164573
 30
0.0
 10
66.2825012751851
 20
27.74195802937926
 30
0.0
 10
65.50000000000001
 20
27.74195802937927
 30
0.0
  0
SPLINE
  5
9E
330
1F
100
AcDbEntity
  8
0
  6
Continuous
 62
     7
370
    25
100
AcDbSpline
210
0.0
220
0.0
230
1.0
 70
     8
 71
     3
 72
    27
 73
    23
 74
     0
 42
0.000000001
 43
0.00000001
 40
0.0
 40
0.0
 40
0.0
 40
0.0
 40
0.1250000000000006
 40
0.1250000000000006
 40
0.187499999999999
 40
0.187499999999999
 40
0.2499999999999974
 40
0.2499999999999974
 40
0.3749999999999979
 40
0.3749999999999979
 40
0.4999999999999986
 40
0.4999999999999986
 40
0.6249999999999991
 40
0.6249999999999991
 40
0.6874999999999994
 40
0.6874999999999994
 40
0.7499999999999997
 40
0.8125
 40
0.8125
 40
0.8750000000000003
 40
0.8750000000000003
 40
1.0
 40
1.0
 40
1.0
 40
1.0
 10
66.30000000000001
 20
19.18024360530695
 30
0.0
 10
66.77454975885702
 20
19.18024360530694
 30
0.0
 10
67.24120249914765
 20
19.13399366436663
 30
0.0
 10
67.92982823262227
 20
18.99806762919505
 30
0.0
 10
68.15746408497459
 20
18.94158493364232
 30
0.0
 10
68.60884087521801
 20
18.80576184851649
 30
0.0
 10
68.83318763508039
 20
18.72604191820284
 30
0.0
 10
69.48595224673137
 20
18.45738163097628
 30
0.0
 10
69.89893908499342
 20
18.23811912091309
 30
0.0
 10
70.68097624054732
 20
17.71981058691503
 30
0.0
 10
71.05144674451743
 20
17.4180414515476
 30
0.0
 10
71.7161150380531
 20
16.75824841630227
 30
0.0
 10
72.01469896900754
 20
16.39797376320343
 30
0.0
 10
72.41059634336739
 20
15.81063595593731
 30
0.0
 10
72.53358339047135
 20
15.60704917755499
 30
0.0
 10
72.75654502703537
 20
15.19317229623251
 30
0.0
 10
72.95805960211283
 20
14.77039640101338
 30
0.0
 10
73.11728671352228
 20
14.3300751447707
 30
0.0
 10
73.25505933033116
 20
13.88085266819675
 30
0.0
 10
73.31341397417347
 20
13.65071691942197
 30
0.0
 10
73.45328235735558
 20
12.9548575149527
 30
0.0
 10
73.50000000000003
 20
12.48603499674197
 30
0.0
 10
73.50000000000001
 20
12.0122966456185
 30
0.0
  0
SPLINE
  5
A0
330
1F
100
AcDbEntity
  8
0
  6
Continuous
 62
     7
370
    25
100
AcDbSpline
210
0.0
220
0.0
230
1.0
 70
     8
 71
     3
 72
    30
 73
    26
 74
     0
 42
0.000000001
 43
0.00000001
 40
0.0
 40
0.0
 40
0.0
 40
0.0
 40
0.1250000000000002
 40
0.1250000000000002
 40
0.1875000000000003
 40
0.1875000000000003
 40
0.2500000000000004
 40
0.2500000000000004
 40
0.3749999999999999
 40
0.3749999999999999
 40
0.4374999999999999
 40
0.4374999999999999
 40
0.4999999999999999
 40
0.4999999999999999
 40
0.6249999999999994
 40
0.6249999999999994
 40
0.6874999999999992
 40
0.6874999999999992
 40
0.7499999999999989
 40
0.7499999999999989
 40
0.8124999999999987
 40
0.8124999999999987
 40
0.8749999999999984
 40
0.8749999999999984
 40
1.0
 40
1.0
 40
1.0
 40
1.0
 10
-77.49999999999999
 20
15.99999999999999
 30
0.0
 10
-77.5
 20
16.79711416267736
 30
0.0
 10
-77.42137553294383
 20
17.57966575332432
 30
0.0
 10
-77.19125117195556
 20
18.73281551822881
 30
0.0
 10
-77.09570156929422
 20
19.11372811925116
 30
0.0
 10
-76.86618414196589
 20
19.8685211303121
 30
0.0
 10
-76.73179165611359
 20
20.24275253397493
 30
0.0
 10
-76.27984864115888
 20
21.33021901588274
 30
0.0
 10
-75.91177254026309
 20
22.01713581888358
 30
0.0
 10
-75.26038726611577
 20
22.99196489827519
 30
0.0
 10
-75.02526079560525
 20
23.30913566721214
 30
0.0
 10
-74.52727137801838
 20
23.91596038984637
 30
0.0
 10
-74.26520659803782
 20
24.20502416348559
 30
0.0
 10
-73.44065045779064
 20
25.03056715970068
 30
0.0
 10
-72.84019807057022
 20
25.52582370056171
 30
0.0
 10
-71.85957920769583
 20
26.1838454683577
 30
0.0
 10
-71.52125428816649
 20
26.38737540053598
 30
0.0
 10
-70.83185507703227
 20
26.7575272415155
 30
0.0
 10
-70.47934003434314
 20
26.92513620681118
 30
0.0
 10
-69.75866146401599
 20
27.2256951165571
 30
0.0
 10
-69.39049860305036
 20
27.35864617044175
 30
0.0
 10
-68.63805216688654
 20
27.58910914624271
 30
0.0
 10
-68.25175706528404
 20
27.68696654390964
 30
0.0
 10
-67.08501866859497
 20
27.92128900746142
 30
0.0
 10
-66.2974698546871
 20
28.0
 30
0.0
 10
-65.49999999999999
 20
27.99999999999999
 30
0.0
  0
SPLINE
  5
A3
330
1F
100
AcDbEntity
  8
0
  6
Continuous
 62
     7
370
    25
100
AcDbSpline
210
0.0
220
0.0
230
1.0
 70
     8
 71
     3
 72
    28
 73
    24
 74
     0
 42
0.000000001
 43
0.00000001
 40
0.0
 40
0.0
 40
0.0
 40
0.0
 40
0.1249999999999963
 40
0.1249999999999963
 40
0.1874999999999955
 40
0.1874999999999955
 40
0.2499999999999947
 40
0.2499999999999947
 40
0.3749999999999953
 40
0.3749999999999953
 40
0.4374999999999963
 40
0.4374999999999963
 40
0.4999999999999973
 40
0.4999999999999973
 40
0.6249999999999978
 40
0.6249999999999978
 40
0.7499999999999983
 40
0.7499999999999983
 40
0.8124999999999986
 40
0.8124999999999986
 40
0.8749999999999988
 40
0.8749999999999988
 40
1.0
 40
1.0
 40
1.0
 40
1.0
 10
65.50000000000003
 20
27.99999999999999
 30
0.0
 10
66.29743737423009
 20
28.0
 30
0.0
 10
67.08068535614602
 20
27.92130979646955
 30
0.0
 10
68.23534708803295
 20
27.69067682696871
 30
0.0
 10
68.61684198302308
 20
27.59488959496444
 30
0.0
 10
69.37294311366809
 20
27.3647032651469
 30
0.0
 10
69.74746678945554
 20
27.23002223845478
 30
0.0
 10
70.83572013527936
 20
26.77717890047488
 30
0.0
 10
71.52322580988975
 20
26.40833362572755
 30
0.0
 10
72.498992523604
 20
25.75537124664557
 30
0.0
 10
72.8165318730277
 20
25.51957110354641
 30
0.0
 10
73.42261533599073
 20
25.02142111213255
 30
0.0
 10
73.71138101231163
 20
24.759248833507
 30
0.0
 10
74.53619359262393
 20
23.93423458080255
 30
0.0
 10
75.03118374201212
 20
23.33329528132387
 30
0.0
 10
75.90814310338222
 20
22.02422114024715
 30
0.0
 10
76.27757930257118
 20
21.33406229332181
 30
0.0
 10
76.72745801594677
 20
20.25397408821624
 30
0.0
 10
76.8601807231177
 20
19.8860045934568
 30
0.0
 10
77.09029001753882
 20
19.13367437229869
 30
0.0
 10
77.1879492701797
 20
18.74744385614812
 30
0.0
 10
77.42137669953235
 20
17.5834143891496
 30
0.0
 10
77.50000000000004
 20
16.79702930918775
 30
0.0
 10
77.50000000000003
 20
15.99999999999999
 30
0.0
  0
SPLINE
  5
AC
330
1F
100
AcDbEntity
  8
0
  6
Continuous
 62
     7
370
    25
100
AcDbSpline
210
0.0
220
0.0
230
1.0
 70
     8
 71
     3
 72
    27
 73
    23
 74
     0
 42
0.000000001
 43
0.00000001
 40
0.0
 40
0.0
 40
0.0
 40
0.0
 40
0.1250000000000004
 40
0.1250000000000004
 40
0.1875000000000006
 40
0.1875000000000006
 40
0.2500000000000008
 40
0.3125000000000011
 40
0.3125000000000011
 40
0.3750000000000012
 40
0.3750000000000012
 40
0.5000000000000017
 40
0.5000000000000017
 40
0.6250000000000021
 40
0.6250000000000021
 40
0.7500000000000024
 40
0.7500000000000024
 40
0.8125000000000009
 40
0.8125000000000009
 40
0.8749999999999993
 40
0.8749999999999993
 40
1.0
 40
1.0
 40
1.0
 40
1.0
 10
73.30000000000001
 20
11.99999999999998
 30
0.0
 10
73.3
 20
12.4615460504345
 30
0.0
 10
73.2547922588524
 20
12.91837851670162
 30
0.0
 10
73.11939653582172
 20
13.59654924858454
 30
0.0
 10
73.06289488974977
 20
13.82089748418485
 30
0.0
 10
72.92946007419388
 20
14.25890992790388
 30
0.0
 10
72.77521729850864
 20
14.68832808153313
 30
0.0
 10
72.57993101314281
 20
15.10079327504435
 30
0.0
 10
72.36381489650842
 20
15.50465424332779
 30
0.0
 10
72.24459180129394
 20
15.70334583316643
 30
0.0
 10
71.86054911375456
 20
16.27692199247198
 30
0.0
 10
71.57076363674241
 20
16.62895392976262
 30
0.0
 10
70.92530592472639
 20
17.27396519717014
 30
0.0
 10
70.56532319639908
 20
17.56919813825685
 30
0.0
 10
69.8048352934976
 20
18.07660097738508
 30
0.0
 10
69.40305249087518
 20
18.29136608984618
 30
0.0
 10
68.76768269110525
 20
18.55462414219289
 30
0.0
 10
68.54923769927643
 20
18.63277300690312
 30
0.0
 10
68.10962712891866
 20
18.76594395803205
 30
0.0
 10
67.88790400352467
 20
18.82132922494139
 30
0.0
 10
67.21710159164162
 20
18.95462513356438
 30
0.0
 10
66.76244405337454
 20
18.99999999999998
 30
0.0
 10
66.30000000000003
 20
18.99999999999998
 30
0.0
  0
SPLINE
  5
AF
330
1F
100
AcDbEntity
  8
0
  6
Continuous
 62
     7
370
    25
100
AcDbSpline
210
0.0
220
0.0
230
1.0
 70
     8
 71
     3
 72
    27
 73
    23
 74
     0
 42
0.000000001
 43
0.00000001
 40
0.0
 40
0.0
 40
0.0
 40
0.0
 40
0.1250000000000007
 40
0.1250000000000007
 40
0.1875000000000011
 40
0.1875000000000011
 40
0.2500000000000014
 40
0.3125000000000017
 40
0.3125000000000017
 40
0.3750000000000021
 40
0.3750000000000021
 40
0.5000000000000022
 40
0.5000000000000022
 40
0.6250000000000023
 40
0.6250000000000023
 40
0.7500000000000024
 40
0.7500000000000024
 40
0.8125000000000019
 40
0.8125000000000019
 40
0.8750000000000012
 40
0.8750000000000012
 40
1.0
 40
1.0
 40
1.0
 40
1.0
 10
-66.29999999999998
 20
18.99999999999998
 30
0.0
 10
-66.762412050376
 20
18.99999999999999
 30
0.0
 10
-67.21951163718965
 20
18.95462536151586
 30
0.0
 10
-67.89728404980363
 20
18.81922008419837
 30
0.0
 10
-68.1218868735666
 20
18.76263211654974
 30
0.0
 10
-68.5600865280921
 20
18.62906281531567
 30
0.0
 10
-68.98946213800662
 20
18.47473457510458
 30
0.0
 10
-69.4015038118538
 20
18.27956845234752
 30
0.0
 10
-69.80478520985079
 20
18.06372711090074
 30
0.0
 10
-70.0029876910916
 20
17.94481933077948
 30
0.0
 10
-70.57686610636401
 20
17.5606110430578
 30
0.0
 10
-70.92893817083775
 20
17.27077085541545
 30
0.0
 10
-71.57384984139203
 20
16.62542990976893
 30
0.0
 10
-71.86910737172963
 20
16.26548960432132
 30
0.0
 10
-72.37697804210671
 20
15.50423976893405
 30
0.0
 10
-72.5918183880227
 20
15.10215305061311
 30
0.0
 10
-72.85504332796405
 20
14.46657455043137
 30
0.0
 10
-72.9331828234133
 20
14.24804247335154
 30
0.0
 10
-73.06634344835095
 20
13.80814979185234
 30
0.0
 10
-73.12168364971036
 20
13.58637302602738
 30
0.0
 10
-73.25480298693803
 20
12.91569874446204
 30
0.0
 10
-73.3
 20
12.46151069765537
 30
0.0
 10
-73.3
 20
11.99999999999998
 30
0.0
  0
LINE
  5
B1
330
1F
100
AcDbEntity
  8
0
  6
Continuous
 62
     7
370
    25
100
AcDbLine
 10
67.5
 20
-28.0
 30
0.0
 11
67.5
 21
-27.7357434516
 31
0.0
  0
LINE
  5
B2
330
1F
100
AcDbEntity
  8
0
  6
Continuous
 62
     7
370
    25
100
AcDbLine
 10
67.5
 20
-28.0
 30
0.0
 11
-67.5
 21
-28.0
 31
0.0
  0
LINE
  5
B3
330
1F
100
AcDbEntity
  8
0
  6
Continuous
 62
     7
370
    25
100
AcDbLine
 10
-67.5
 20
-28.0
 30
0.0
 11
-67.5
 21
-27.7357434516
 31
0.0
  0
LINE
  5
B4
330
1F
100
AcDbEntity
  8
0
  6
Continuous
 62
     7
370
    25
100
AcDbLine
 10
-67.5
 20
-27.7357434516
 30
0.0
 11
67.5
 21
-27.7357434516
 31
0.0
  0
LINE
  5
B5
330
1F
100
AcDbEntity
  8
0
  6
Continuous
 62
     7
370
    25
100
AcDbLine
 10
77.3
 20
-17.9357434516
 30
0.0
 11
77.3
 21
15.994489401
 31
0.0
  0
LINE
  5
B6
330
1F
100
AcDbEntity
  8
0
  6
Continuous
 62
     7
370
    25
100
AcDbLine
 10
-77.3
 20
15.994489401
 30
0.0
 11
-77.3
 21
-17.9357434516
 31
0.0
  0
LINE
  5
B7
330
1F
100
AcDbEntity
  8
0
  6
Continuous
 62
     7
370
    25
100
AcDbLine
 10
-77.3
 20
0.3926242689
 30
0.0
 11
-73.5
 21
0.3926242689
 31
0.0
  0
LINE
  5
B8
330
1F
100
AcDbEntity
  8
0
  6
Continuous
 62
     7
370
    25
100
AcDbLine
 10
-73.5
 20
-16.7357434516
 30
0.0
 11
-73.5
 21
12.0122966456
 31
0.0
  0
LINE
  5
B9
330
1F
100
AcDbEntity
  8
0
  6
Continuous
 62
     7
370
    25
100
AcDbLine
 10
66.3
 20
-23.9357434516
 30
0.0
 11
-66.3
 21
-23.9357434516
 31
0.0
  0
LINE
  5
BA
330
1F
100
AcDbEntity
  8
0
  6
Continuous
 62
     7
370
    25
100
AcDbLine
 10
73.5
 20
12.0122966456
 30
0.0
 11
73.5
 21
-16.7357434516
 31
0.0
  0
LINE
  5
BB
330
1F
100
AcDbEntity
  8
0
  6
Continuous
 62
     7
370
    25
100
AcDbLine
 10
73.5
 20
0.3926242689
 30
0.0
 11
77.3
 21
0.3926242689
 31
0.0
  0
LINE
  5
BC
330
1F
100
AcDbEntity
  8
0
  6
Continuous
 62
     7
370
    25
100
AcDbLine
 10
-66.3
 20
-23.8
 30
0.0
 11
-66.3
 21
-23.9357434516
 31
0.0
  0
LINE
  5
BD
330
1F
100
AcDbEntity
  8
0
  6
Continuous
 62
     7
370
    25
100
AcDbLine
 10
-66.3
 20
-23.8
 30
0.0
 11
66.3
 21
-23.8
 31
0.0
  0
LINE
  5
BE
330
1F
100
AcDbEntity
  8
0
  6
Continuous
 62
     7
370
    25
100
AcDbLine
 10
66.3
 20
-23.8
 30
0.0
 11
66.3
 21
-23.9357434516
 31
0.0
  0
LINE
  5
BF
330
1F
100
AcDbEntity
  8
0
  6
Continuous
 62
     7
370
    25
100
AcDbLine
 10
-77.5
 20
-18.0
 30
0.0
 11
-77.5
 21
16.0
 31
0.0
  0
LINE
  5
C0
330
1F
100
AcDbEntity
  8
0
  6
Continuous
 62
     7
370
    25
100
AcDbLine
 10
77.5
 20
16.0
 30
0.0
 11
77.5
 21
-18.0
 31
0.0
  0
LINE
  5
C1
330
1F
100
AcDbEntity
  8
0
  6
Continuous
 62
     7
370
    25
100
AcDbLine
 10
73.3
 20
-16.8
 30
0.0
 11
73.3
 21
12.0
 31
0.0
  0
LINE
  5
C2
330
1F
100
AcDbEntity
  8
0
  6
Continuous
 62
     7
370
    25
100
AcDbLine
 10
-73.3
 20
12.0
 30
0.0
 11
-73.3
 21
-16.8
 31
0.0
  0
LINE
  5
C3
330
1F
100
AcDbEntity
  8
0
  6
Continuous
 62
     7
370
    25
100
AcDbLine
 10
-66.3
 20
19.1802436053
 30
0.0
 11
66.3
 21
19.1802436053
 31
0.0
  0
LINE
  5
C4
330
1F
100
AcDbEntity
  8
0
  6
Continuous
 62
     7
370
    25
100
AcDbLine
 10
65.5
 20
27.7419580294
 30
0.0
 11
-65.5
 21
27.7419580294
 31
0.0
  0
LINE
  5
C5
330
1F
100
AcDbEntity
  8
0
  6
Continuous
 62
     7
370
    25
100
AcDbLine
 10
-65.5
 20
27.7419580294
 30
0.0
 11
-65.5
 21
28.0
 31
0.0
  0
LINE
  5
C6
330
1F
100
AcDbEntity
  8
0
  6
Continuous
 62
     7
370
    25
100
AcDbLine
 10
65.5
 20
27.7419580294
 30
0.0
 11
65.5
 21
28.0
 31
0.0
  0
LINE
  5
C7
330
1F
100
AcDbEntity
  8
0
  6
Continuous
 62
     7
370
    25
100
AcDbLine
 10
-65.5
 20
28.0
 30
0.0
 11
65.5
 21
28.0
 31
0.0
  0
LINE
  5
C8
330
1F
100
AcDbEntity
  8
0
  6
Continuous
 62
     7
370
    25
100
AcDbLine
 10
66.3
 20
19.1802436053
 30
0.0
 11
66.3
 21
19.0
 31
0.0
  0
LINE
  5
C9
330
1F
100
AcDbEntity
  8
0
  6
Continuous
 62
     7
370
    25
100
AcDbLine
 10
-66.3
 20
19.1802436053
 30
0.0
 11
-66.3
 21
19.0
 31
0.0
  0
LINE
  5
CA
330
1F
100
AcDbEntity
  8
0
  6
Continuous
 62
     7
370
    25
100
AcDbLine
 10
66.3
 20
19.0
 30
0.0
 11
-66.3
 21
19.0
 31
0.0
  0
ARC
  5
CB
330
1F
100
AcDbEntity
  8
0
  6
Continuous
 62
     7
370
    25
100
AcDbCircle
 10
67.5
 20
-18.0
 30
0.0
 40
9.999999999999975
100
AcDbArc
 50
270.0
 51
0.0
  0
ARC
  5
CC
330
1F
100
AcDbEntity
  8
0
  6
Continuous
 62
     7
370
    25
100
AcDbCircle
 10
67.5
 20
-17.9357434516
 30
0.0
 40
9.800000000000015
100
AcDbArc
 50
270.0
 51
0.0
  0
ARC
  5
CD
330
1F
100
AcDbEntity
  8
0
  6
Continuous
 62
     7
370
    25
100
AcDbCircle
 10
-67.5
 20
-18.0
 30
0.0
 40
9.999999999999986
100
AcDbArc
 50
180.0
 51
270.0
  0
ARC
  5
CE
330
1F
100
AcDbEntity
  8
0
  6
Continuous
 62
     7
370
    25
100
AcDbCircle
 10
-67.5
 20
-17.9357434516
 30
0.0
 40
9.800000000000015
100
AcDbArc
 50
180.0
 51
270.0
  0
ARC
  5
CF
330
1F
100
AcDbEntity
  8
0
  6
Continuous
 62
     7
370
    25
100
AcDbCircle
 10
-66.3
 20
-16.7357434516
 30
0.0
 40
7.200000000000017
100
AcDbArc
 50
180.0
 51
270.0
  0
ARC
  5
D0
330
1F
100
AcDbEntity
  8
0
  6
Continuous
 62
     7
370
    25
100
AcDbCircle
 10
66.3
 20
-16.7357434516
 30
0.0
 40
7.200000000000017
100
AcDbArc
 50
270.0
 51
0.0
  0
ARC
  5
D1
330
1F
100
AcDbEntity
  8
0
  6
Continuous
 62
     7
370
    25
100
AcDbCircle
 10
-66.3
 20
-16.8
 30
0.0
 40
7.000000000000043
100
AcDbArc
 50
180.0
 51
270.0
  0
ARC
  5
D2
330
1F
100
AcDbEntity
  8
0
  6
Continuous
 62
     7
370
    25
100
AcDbCircle
 10
66.3
 20
-16.8
 30
0.0
 40
7.000000000000014
100
AcDbArc
 50
270.0
 51
0.0
  0
ARC
  5
D3
330
1F
100
AcDbEntity
  8
0
  6
Continuous
 62
     7
370
    25
100
AcDbCircle
 10
-77.3499620416
 20
17.8133071063
 30
0.0
 40
1.819503792405631
100
AcDbArc
 50
265.2699663415
 51
271.5734916259
  0
ARC
  5
D4
330
1F
100
AcDbEntity
  8
0
  6
Continuous
 62
     7
370
    25
100
AcDbCircle
 10
77.3499620416
 20
17.8133071063
 30
0.0
 40
1.819503792404452
100
AcDbArc
 50
268.4265083741
 51
274.7300336585
  0
ARC
  5
D5
330
1F
100
AcDbEntity
  8
0
  6
Continuous
 62
     7
370
    25
100
AcDbCircle
 10
73.4501890094
 20
11.1898442522
 30
0.0
 40
0.8239593887106436
100
AcDbArc
 50
86.5341729421
 51
100.5024283822
  0
ARC
  5
D6
330
1F
100
AcDbEntity
  8
0
  6
Continuous
 62
     7
370
    25
100
AcDbCircle
 10
-73.4501890094
 20
11.1898442522
 30
0.0
 40
0.8239593887107562
100
AcDbArc
 50
79.4975716178
 51
93.4658270579
  0
CIRCLE
  5
232
330
20B
100
AcDbEntity
 67
     1
  8
0
  6
Continuous
 62
     7
370
    25
100
AcDbCircle
 10
48.0
 20
-23.5
 30
0.0
 40
2.0
  0
CIRCLE
  5
233
330
20B
100
AcDbEntity
 67
     1
  8
0
  6
Continuous
 62
     7
370
    25
100
AcDbCircle
 10
-48.0
 20
-23.5
 30
0.0
 40
2.000000000000004
  0
LWPOLYLINE
  5
23F
330
20B
100
AcDbEntity
 67
     1
  8
0
  6
Continuous
 62
     7
370
    25
100
AcDbPolyline
 90
        9
 70
   128
 43
0.0
 10
-73.5
 20
-5.6110982948
 10
-73.4609819356
 20
-5.613317522
 10
-73.4234633135
 20
-5.61988992
 10
-73.3888859534
 20
-5.6305629152
 10
-73.3585786438
 20
-5.6449263503
 10
-73.3337060775
 20
-5.6624282467
 10
-73.3152240935
 20
-5.6823960162
 10
-73.3038429439
 20
-5.7040623087
 10
-73.3
 20
-5.7265945007
  0
LWPOLYLINE
  5
242
330
20B
100
AcDbEntity
 67
     1
  8
0
  6
Continuous
 62
     7
370
    25
100
AcDbPolyline
 90
        9
 70
   128
 43
0.0
 10
77.5
 20
-5.7265945007
 10
77.4961570561
 20
-5.7040623087
 10
77.4847759065
 20
-5.6823960162
 10
77.4662939225
 20
-5.6624282467
 10
77.4414213562
 20
-5.6449263503
 10
77.4111140466
 20
-5.6305629152
 10
77.3765366865
 20
-5.61988992
 10
77.3390180644
 20
-5.613317522
 10
77.3
 20
-5.6110982948
  0
LWPOLYLINE
  5
244
330
20B
100
AcDbEntity
 67
     1
  8
0
  6
Continuous
 62
     7
370
    25
100
AcDbPolyline
 90
        9
 70
   128
 43
0.0
 10
73.5
 20
-5.6110982948
 10
73.4609819356
 20
-5.613317522
 10
73.4234633135
 20
-5.61988992
 10
73.3888859534
 20
-5.6305629152
 10
73.3585786438
 20
-5.6449263503
 10
73.3337060775
 20
-5.6624282467
 10
73.3152240935
 20
-5.6823960162
 10
73.3038429439
 20
-5.7040623087
 10
73.3
 20
-5.7265945007
  0
LWPOLYLINE
  5
248
330
20B
100
AcDbEntity
 67
     1
  8
0
  6
Continuous
 62
     7
370
    25
100
AcDbPolyline
 90
        9
 70
   128
 43
0.0
 10
-77.3
 20
-5.6110982948
 10
-77.3390180644
 20
-5.613317522
 10
-77.3765366865
 20
-5.61988992
 10
-77.4111140466
 20
-5.6305629152
 10
-77.4414213562
 20
-5.6449263503
 10
-77.4662939225
 20
-5.6624282467
 10
-77.4847759065
 20
-5.6823960162
 10
-77.4961570561
 20
-5.7040623087
 10
-77.5
 20
-5.7265945007
  0
LWPOLYLINE
  5
24E
330
20B
100
AcDbEntity
 67
     1
  8
0
  6
Continuous
 62
     7
370
    25
100
AcDbPolyline
 90
        9
 70
   128
 43
0.0
 10
-77.5
 20
0.6693209362
 10
-77.4961570561
 20
0.6862636625
 10
-77.4847759065
 20
0.7025552893
 10
-77.4662939225
 20
0.7175697386
 10
-77.4414213562
 20
0.7307300134
 10
-77.4111140466
 20
0.7415303719
 10
-77.3765366865
 20
0.7495557622
 10
-77.3390180644
 20
0.7544977732
 10
-77.3
 20
0.7561664861
  0
LWPOLYLINE
  5
253
330
20B
100
AcDbEntity
 67
     1
  8
0
  6
Continuous
 62
     7
370
    25
100
AcDbPolyline
 90
        9
 70
   128
 43
0.0
 10
-73.5
 20
0.7561664861
 10
-73.4609819356
 20
0.7544977732
 10
-73.4234633135
 20
0.7495557622
 10
-73.3888859534
 20
0.7415303719
 10
-73.3585786438
 20
0.7307300134
 10
-73.3337060775
 20
0.7175697386
 10
-73.3152240935
 20
0.7025552893
 10
-73.3038429439
 20
0.6862636625
 10
-73.3
 20
0.6693209362
  0
LWPOLYLINE
  5
255
330
20B
100
AcDbEntity
 67
     1
  8
0
  6
Continuous
 62
     7
370
    25
100
AcDbPolyline
 90
        9
 70
   128
 43
0.0
 10
77.5
 20
0.6693209362
 10
77.4961570561
 20
0.6862636625
 10
77.4847759065
 20
0.7025552893
 10
77.4662939225
 20
0.7175697386
 10
77.4414213562
 20
0.7307300134
 10
77.4111140466
 20
0.7415303719
 10
77.3765366865
 20
0.7495557622
 10
77.3390180644
 20
0.7544977732
 10
77.3
 20
0.7561664861
  0
LWPOLYLINE
  5
257
330
20B
100
AcDbEntity
 67
     1
  8
0
  6
Continuous
 62
     7
370
    25
100
AcDbPolyline
 90
        9
 70
   128
 43
0.0
 10
73.5
 20
0.7561664861
 10
73.4609819356
 20
0.7544977732
 10
73.4234633135
 20
0.7495557622
 10
73.3888859534
 20
0.7415303719
 10
73.3585786438
 20
0.7307300134
 10
73.3337060775
 20
0.7175697386
 10
73.3152240935
 20
0.7025552893
 10
73.3038429439
 20
0.6862636625
 10
73.3
 20
0.6693209362
  0
LWPOLYLINE
  5
263
330
20B
100
AcDbEntity
 67
     1
  8
0
  6
Continuous
 62
     7
370
    25
100
AcDbPolyline
 90
        9
 70
   128
 43
0.0
 10
77.5
 20
18.0
 10
77.4961570561
 20
18.0169427263
 10
77.4847759065
 20
18.0332343531
 10
77.4662939225
 20
18.0482488023
 10
77.4414213562
 20
18.0614090772
 10
77.4111140466
 20
18.0722094356
 10
77.3765366865
 20
18.080234826
 10
77.3390180644
 20
18.0851768369
 10
77.3
 20
18.0868455498
  0
LWPOLYLINE
  5
265
330
20B
100
AcDbEntity
 67
     1
  8
0
  6
Continuous
 62
     7
370
    25
100
AcDbPolyline
 90
        9
 70
   128
 43
0.0
 10
-77.5
 20
18.0
 10
-77.4961570561
 20
18.0169427263
 10
-77.4847759065
 20
18.0332343531
 10
-77.4662939225
 20
18.0482488023
 10
-77.4414213562
 20
18.0614090772
 10
-77.4111140466
 20
18.0722094356
 10
-77.3765366865
 20
18.080234826
 10
-77.3390180644
 20
18.0851768369
 10
-77.3
 20
18.0868455498
  0
LWPOLYLINE
  5
267
330
20B
100
AcDbEntity
 67
     1
  8
0
  6
Continuous
 62
     7
370
    25
100
AcDbPolyline
 90
        9
 70
   128
 43
0.0
 10
73.5
 20
16.8868455498
 10
73.4609819356
 20
16.8851768369
 10
73.4234633135
 20
16.880234826
 10
73.3888859534
 20
16.8722094356
 10
73.3585786438
 20
16.8614090772
 10
73.3337060775
 20
16.8482488023
 10
73.3152240935
 20
16.8332343531
 10
73.3038429439
 20
16.8169427263
 10
73.3
 20
16.8
  0
LWPOLYLINE
  5
269
330
20B
100
AcDbEntity
 67
     1
  8
0
  6
Continuous
 62
     7
370
    25
100
AcDbPolyline
 90
        9
 70
   128
 43
0.0
 10
-73.5
 20
16.8868455498
 10
-73.4609819356
 20
16.8851768369
 10
-73.4234633135
 20
16.880234826
 10
-73.3888859534
 20
16.8722094356
 10
-73.3585786438
 20
16.8614090772
 10
-73.3337060775
 20
16.8482488023
 10
-73.3152240935
 20
16.8332343531
 10
-73.3038429439
 20
16.8169427263
 10
-73.3
 20
16.8
  0
LINE
  5
275
330
20B
100
AcDbEntity
 67
     1
  8
0
  6
Continuous
 62
     7
370
    25
100
AcDbLine
 10
-77.3
 20
18.0868455498
 30
0.0
 11
-77.3
 21
-16.0
 31
0.0
  0
LINE
  5
276
330
20B
100
AcDbEntity
 67
     1
  8
0
  6
Continuous
 62
     7
370
    25
100
AcDbLine
 10
-77.3
 20
-16.0
 30
0.0
 11
-77.5
 21
-16.0
 31
0.0
  0
LINE
  5
277
330
20B
100
AcDbEntity
 67
     1
  8
0
  6
Continuous
 62
     7
370
    25
100
AcDbLine
 10
-77.5
 20
-16.0
 30
0.0
 11
-77.5
 21
18.0
 31
0.0
  0
LINE
  5
278
330
20B
100
AcDbEntity
 67
     1
  8
0
  6
Continuous
 62
     7
370
    25
100
AcDbLine
 10
-66.3
 20
-19.0
 30
0.0
 11
66.3
 21
-19.0
 31
0.0
  0
LINE
  5
279
330
20B
100
AcDbEntity
 67
     1
  8
0
  6
Continuous
 62
     7
370
    25
100
AcDbLine
 10
66.3
 20
-19.0
 30
0.0
 11
66.3
 21
-19.2
 31
0.0
  0
LINE
  5
27A
330
20B
100
AcDbEntity
 67
     1
  8
0
  6
Continuous
 62
     7
370
    25
100
AcDbLine
 10
66.3
 20
-19.2
 30
0.0
 11
-66.3
 21
-19.2
 31
0.0
  0
LINE
  5
27B
330
20B
100
AcDbEntity
 67
     1
  8
0
  6
Continuous
 62
     7
370
    25
100
AcDbLine
 10
-66.3
 20
-19.0
 30
0.0
 11
-66.3
 21
-19.2
 31
0.0
  0
LINE
  5
27C
330
20B
100
AcDbEntity
 67
     1
  8
0
  6
Continuous
 62
     7
370
    25
100
AcDbLine
 10
-73.3
 20
-12.0
 30
0.0
 11
-73.5
 21
-12.0
 31
0.0
  0
LINE
  5
27D
330
20B
100
AcDbEntity
 67
     1
  8
0
  6
Continuous
 62
     7
370
    25
100
AcDbLine
 10
73.3
 20
-12.0
 30
0.0
 11
73.5
 21
-12.0
 31
0.0
  0
LINE
  5
27E
330
20B
100
AcDbEntity
 67
     1
  8
0
  6
Continuous
 62
     7
370
    25
100
AcDbLine
 10
73.3
 20
-12.0
 30
0.0
 11
73.3
 21
16.8
 31
0.0
  0
LINE
  5
27F
330
20B
100
AcDbEntity
 67
     1
  8
0
  6
Continuous
 62
     7
370
    25
100
AcDbLine
 10
77.5
 20
-8.1965825067
 30
0.0
 11
73.3
 21
-8.1965825067
 31
0.0
  0
LINE
  5
280
330
20B
100
AcDbEntity
 67
     1
  8
0
  6
Continuous
 62
     7
370
    25
100
AcDbLine
 10
73.5
 20
16.8868455498
 30
0.0
 11
73.5
 21
-12.0
 31
0.0
  0
LINE
  5
281
330
20B
100
AcDbEntity
 67
     1
  8
0
  6
Continuous
 62
     7
370
    25
100
AcDbLine
 10
73.5
 20
-7.9966992652
 30
0.0
 11
77.3
 21
-7.9966992652
 31
0.0
  0
LINE
  5
282
330
20B
100
AcDbEntity
 67
     1
  8
0
  6
Continuous
 62
     7
370
    25
100
AcDbLine
 10
77.3
 20
-16.0
 30
0.0
 11
77.3
 21
18.0868455498
 31
0.0
  0
LINE
  5
283
330
20B
100
AcDbEntity
 67
     1
  8
0
  6
Continuous
 62
     7
370
    25
100
AcDbLine
 10
-73.3
 20
-8.1965825067
 30
0.0
 11
-77.5
 21
-8.1965825067
 31
0.0
  0
LINE
  5
284
330
20B
100
AcDbEntity
 67
     1
  8
0
  6
Continuous
 62
     7
370
    25
100
AcDbLine
 10
-73.5
 20
-12.0
 30
0.0
 11
-73.5
 21
16.8868455498
 31
0.0
  0
LINE
  5
285
330
20B
100
AcDbEntity
 67
     1
  8
0
  6
Continuous
 62
     7
370
    25
100
AcDbLine
 10
-77.3
 20
-7.9966992652
 30
0.0
 11
-73.5
 21
-7.9966992652
 31
0.0
  0
LINE
  5
286
330
20B
100
AcDbEntity
 67
     1
  8
0
  6
Continuous
 62
     7
370
    25
100
AcDbLine
 10
-65.5
 20
-27.8
 30
0.0
 11
65.5
 21
-27.8
 31
0.0
  0
LINE
  5
287
330
20B
100
AcDbEntity
 67
     1
  8
0
  6
Continuous
 62
     7
370
    25
100
AcDbLine
 10
65.5
 20
-27.8
 30
0.0
 11
65.5
 21
-28.0
 31
0.0
  0
LINE
  5
288
330
20B
100
AcDbEntity
 67
     1
  8
0
  6
Continuous
 62
     7
370
    25
100
AcDbLine
 10
65.5
 20
-28.0
 30
0.0
 11
-65.5
 21
-28.0
 31
0.0
  0
LINE
  5
289
330
20B
100
AcDbEntity
 67
     1
  8
0
  6
Continuous
 62
     7
370
    25
100
AcDbLine
 10
-65.5
 20
-27.8
 30
0.0
 11
-65.5
 21
-28.0
 31
0.0
  0
LINE
  5
28A
330
20B
100
AcDbEntity
 67
     1
  8
0
  6
Continuous
 62
     7
370
    25
100
AcDbLine
 10
77.5
 20
18.0
 30
0.0
 11
77.5
 21
-16.0
 31
0.0
  0
LINE
  5
28B
330
20B
100
AcDbEntity
 67
     1
  8
0
  6
Continuous
 62
     7
370
    25
100
AcDbLine
 10
77.3
 20
-16.0
 30
0.0
 11
77.5
 21
-16.0
 31
0.0
  0
LINE
  5
28C
330
20B
100
AcDbEntity
 67
     1
  8
0
  6
Continuous
 62
     7
370
    25
100
AcDbLine
 10
-73.3
 20
16.8
 30
0.0
 11
-73.3
 21
-12.0
 31
0.0
  0
LINE
  5
28D
330
20B
100
AcDbEntity
 67
     1
  8
0
  6
Continuous
 62
     7
370
    25
100
AcDbLine
 10
-77.3
 20
-5.6110982948
 30
0.0
 11
-73.5
 21
-5.6110982948
 31
0.0
  0
LINE
  5
28E
330
20B
100
AcDbEntity
 67
     1
  8
0
  6
Continuous
 62
     7
370
    25
100
AcDbLine
 10
73.5
 20
-5.6110982948
 30
0.0
 11
77.3
 21
-5.6110982948
 31
0.0
  0
LINE
  5
28F
330
20B
100
AcDbEntity
 67
     1
  8
0
  6
Continuous
 62
     7
370
    25
100
AcDbLine
 10
73.5
 20
0.7561664861
 30
0.0
 11
77.3
 21
0.7561664861
 31
0.0
  0
LINE
  5
290
330
20B
100
AcDbEntity
 67
     1
  8
0
  6
Continuous
 62
     7
370
    25
100
AcDbLine
 10
-77.3
 20
0.7561664861
 30
0.0
 11
-73.5
 21
0.7561664861
 31
0.0
  0
LINE
  5
291
330
20B
100
AcDbEntity
 67
     1
  8
0
  6
Continuous
 62
     7
370
    25
100
AcDbLine
 10
-66.3
 20
24.0868455498
 30
0.0
 11
66.3
 21
24.0868455498
 31
0.0
  0
LINE
  5
292
330
20B
100
AcDbEntity
 67
     1
  8
0
  6
Continuous
 62
     7
370
    25
100
AcDbLine
 10
67.5
 20
27.8868455498
 30
0.0
 11
-67.5
 21
27.8868455498
 31
0.0
  0
LINE
  5
293
330
20B
100
AcDbEntity
 67
     1
  8
0
  6
Continuous
 62
     7
370
    25
100
AcDbLine
 10
-66.3
 20
24.0868455498
 30
0.0
 11
-66.3
 21
23.8
 31
0.0
  0
LINE
  5
294
330
20B
100
AcDbEntity
 67
     1
  8
0
  6
Continuous
 62
     7
370
    25
100
AcDbLine
 10
66.3
 20
24.0868455498
 30
0.0
 11
66.3
 21
23.8
 31
0.0
  0
LINE
  5
295
330
20B
100
AcDbEntity
 67
     1
  8
0
  6
Continuous
 62
     7
370
    25
100
AcDbLine
 10
67.5
 20
28.0
 30
0.0
 11
67.5
 21
27.8868455498
 31
0.0
  0
LINE
  5
296
330
20B
100
AcDbEntity
 67
     1
  8
0
  6
Continuous
 62
     7
370
    25
100
AcDbLine
 10
-67.5
 20
28.0
 30
0.0
 11
-67.5
 21
27.8868455498
 31
0.0
  0
LINE
  5
297
330
20B
100
AcDbEntity
 67
     1
  8
0
  6
Continuous
 62
     7
370
    25
100
AcDbLine
 10
66.3
 20
23.8
 30
0.0
 11
-66.3
 21
23.8
 31
0.0
  0
LINE
  5
298
330
20B
100
AcDbEntity
 67
     1
  8
0
  6
Continuous
 62
     7
370
    25
100
AcDbLine
 10
-67.5
 20
28.0
 30
0.0
 11
67.5
 21
28.0
 31
0.0
  0
ARC
  5
299
330
20B
100
AcDbEntity
 67
     1
  8
0
  6
Continuous
 62
     7
370
    25
100
AcDbCircle
 10
-66.3
 20
-12.0
 30
0.0
 40
7.000000000000028
100
AcDbArc
 50
180.0
 51
270.0
  0
ARC
  5
29A
330
20B
100
AcDbEntity
 67
     1
  8
0
  6
Continuous
 62
     7
370
    25
100
AcDbCircle
 10
-66.3
 20
-12.0
 30
0.0
 40
7.200000000000019
100
AcDbArc
 50
180.0
 51
270.0
  0
ARC
  5
29B
330
20B
100
AcDbEntity
 67
     1
  8
0
  6
Continuous
 62
     7
370
    25
100
AcDbCircle
 10
-77.3000583622
 20
-8.196640903
 30
0.0
 40
0.1999416463112281
100
AcDbArc
 50
89.9832755766
 51
179.9832658073
  0
ARC
  5
29C
330
20B
100
AcDbEntity
 67
     1
  8
0
  6
Continuous
 62
     7
370
    25
100
AcDbCircle
 10
66.3
 20
-12.0
 30
0.0
 40
7.000000000000044
100
AcDbArc
 50
270.0
 51
0.0
  0
ARC
  5
29D
330
20B
100
AcDbEntity
 67
     1
  8
0
  6
Continuous
 62
     7
370
    25
100
AcDbCircle
 10
66.3
 20
-12.0
 30
0.0
 40
7.200000000000005
100
AcDbArc
 50
270.0
 51
0.0
  0
ARC
  5
29E
330
20B
100
AcDbEntity
 67
     1
  8
0
  6
Continuous
 62
     7
370
    25
100
AcDbCircle
 10
-73.4999416378
 20
-8.196640903
 30
0.0
 40
0.1999416463111819
100
AcDbArc
 50
0.0167341927
 51
90.0167244234
  0
ARC
  5
29F
330
20B
100
AcDbEntity
 67
     1
  8
0
  6
Continuous
 62
     7
370
    25
100
AcDbCircle
 10
77.3000583622
 20
-8.196640903
 30
0.0
 40
0.1999416463112085
100
AcDbArc
 50
0.0167341927
 51
90.0167244234
  0
ARC
  5
2A0
330
20B
100
AcDbEntity
 67
     1
  8
0
  6
Continuous
 62
     7
370
    25
100
AcDbCircle
 10
65.5
 20
-16.0
 30
0.0
 40
11.80000000000003
100
AcDbArc
 50
270.0
 51
0.0
  0
ARC
  5
2A1
330
20B
100
AcDbEntity
 67
     1
  8
0
  6
Continuous
 62
     7
370
    25
100
AcDbCircle
 10
-65.5
 20
-16.0
 30
0.0
 40
11.80000000000003
100
AcDbArc
 50
180.0
 51
270.0
  0
ARC
  5
2A2
330
20B
100
AcDbEntity
 67
     1
  8
0
  6
Continuous
 62
     7
370
    25
100
AcDbCircle
 10
73.4999416378
 20
-8.196640903
 30
0.0
 40
0.1999416463112085
100
AcDbArc
 50
89.9832755766
 51
179.9832658073
  0
ARC
  5
2A3
330
20B
100
AcDbEntity
 67
     1
  8
0
  6
Continuous
 62
     7
370
    25
100
AcDbCircle
 10
-65.5
 20
-16.0
 30
0.0
 40
11.99999999999999
100
AcDbArc
 50
180.0
 51
270.0
  0
ARC
  5
2A4
330
20B
100
AcDbEntity
 67
     1
  8
0
  6
Continuous
 62
     7
370
    25
100
AcDbCircle
 10
65.5
 20
-16.0
 30
0.0
 40
12.00000000000003
100
AcDbArc
 50
270.0
 51
0.0
  0
ARC
  5
2A5
330
20B
100
AcDbEntity
 67
     1
  8
0
  6
Continuous
 62
     7
370
    25
100
AcDbCircle
 10
-66.3
 20
16.8868455498
 30
0.0
 40
7.200000000000021
100
AcDbArc
 50
90.0
 51
180.0
  0
ARC
  5
2A6
330
20B
100
AcDbEntity
 67
     1
  8
0
  6
Continuous
 62
     7
370
    25
100
AcDbCircle
 10
-67.5
 20
18.0868455498
 30
0.0
 40
9.800000000000026
100
AcDbArc
 50
90.0
 51
180.0
  0
ARC
  5
2A7
330
20B
100
AcDbEntity
 67
     1
  8
0
  6
Continuous
 62
     7
370
    25
100
AcDbCircle
 10
67.5
 20
18.0868455498
 30
0.0
 40
9.799999999999986
100
AcDbArc
 50
0.0
 51
90.0
  0
ARC
  5
2A8
330
20B
100
AcDbEntity
 67
     1
  8
0
  6
Continuous
 62
     7
370
    25
100
AcDbCircle
 10
66.3
 20
16.8868455498
 30
0.0
 40
7.200000000000021
100
AcDbArc
 50
0.0
 51
90.0
  0
ARC
  5
2A9
330
20B
100
AcDbEntity
 67
     1
  8
0
  6
Continuous
 62
     7
370
    25
100
AcDbCircle
 10
-66.3
 20
16.8
 30
0.0
 40
7.000000000000043
100
AcDbArc
 50
90.0
 51
180.0
  0
ARC
  5
2AA
330
20B
100
AcDbEntity
 67
     1
  8
0
  6
Continuous
 62
     7
370
    25
100
AcDbCircle
 10
66.3
 20
16.8
 30
0.0
 40
7.000000000000014
100
AcDbArc
 50
0.0
 51
90.0
  0
ARC
  5
2AB
330
20B
100
AcDbEntity
 67
     1
  8
0
  6
Continuous
 62
     7
370
    25
100
AcDbCircle
 10
67.5
 20
18.0
 30
0.0
 40
10.0
100
AcDbArc
 50
0.0
 51
90.0
  0
ARC
  5
2AC
330
20B
100
AcDbEntity
 67
     1
  8
0
  6
Continuous
 62
     7
370
    25
100
AcDbCircle
 10
-67.5
 20
18.0
 30
0.0
 40
9.999999999999986
100
AcDbArc
 50
90.0
 51
180.0
  0
VIEWPORT
  5
3C5
330
20B
100
AcDbEntity
 67
     1
  8
0
100
AcDbViewport
 10
0.0
 20
0.0
 30
0.0
 40
205.6
 41
156.0
 68
     1
 69
     1
 12
0.0
 22
0.0
 13
0.0
 23
0.0
 14
10.0
 24
10.0
 15
10.0
 25
10.0
 16
0.0
 26
0.0
 36
1.0
 17
0.0
 27
0.0
 37
0.0
 42
50.0
 43
0.0
 44
0.0
 45
119.9591439689
 50
0.0
 51
0.0
 72
   100
 90
   557152
  1

281
     0
 71
     1
 74
     0
110
0.0
120
0.0
130
0.0
111
1.0
121
0.0
131
0.0
112
0.0
122
1.0
132
0.0
 79
     0
146
0.0
  0
ENDSEC
  0
SECTION
  2
OBJECTS
  0
DICTIONARY
  5
C
330
0
100
AcDbDictionary
281
     1
  3
ACAD_GROUP
350
D
  3
ACAD_LAYOUT
350
1A
  3
ACAD_MLINESTYLE
350
17
  3
ACAD_PLOTSETTINGS
350
19
  3
ACAD_PLOTSTYLENAME
350
E
  3
ACAD_SCALELIST
350
47
  0
DICTIONARY
  5
D
102
{ACAD_REACTORS
330
C
102
}
330
C
100
AcDbDictionary
281
     1
  0
DICTIONARY
  5
1A
102
{ACAD_REACTORS
330
C
102
}
330
C
100
AcDbDictionary
281
     1
  3
_Back
350
26
  3
_Bottom
350
20C
  3
_Front
350
1E
  3
_Isometric
350
2AE
  3
Model
350
22
  0
DICTIONARY
  5
17
102
{ACAD_REACTORS
330
C
102
}
330
C
100
AcDbDictionary
281
     1
  3
Standard
350
18
  0
DICTIONARY
  5
19
102
{ACAD_REACTORS
330
C
102
}
330
C
100
AcDbDictionary
281
     1
  0
ACDBDICTIONARYWDFLT
  5
E
102
{ACAD_REACTORS
330
C
102
}
330
C
100
AcDbDictionary
281
     1
  3
Normal
350
F
100
AcDbDictionaryWithDefault
340
F
  0
DICTIONARY
  5
47
102
{ACAD_REACTORS
330
C
102
}
330
C
100
AcDbDictionary
281
     1
  3
A0
350
48
  3
A1
350
49
  3
A2
350
4A
  3
A3
350
4B
  3
A4
350
4C
  3
A5
350
4D
  3
A6
350
4E
  3
A7
350
4F
  3
A8
350
50
  3
A9
350
51
  3
B0
350
52
  3
B1
350
53
  3
B2
350
54
  3
B3
350
55
  3
B4
350
56
  3
B5
350
57
  3
B6
350
58
  3
B7
350
59
  3
B8
350
5A
  3
B9
350
5B
  3
C0
350
5C
  3
C1
350
5D
  3
C2
350
5E
  3
C3
350
5F
  3
C4
350
60
  3
C5
350
61
  3
C6
350
62
  3
C7
350
63
  3
C8
350
64
  3
C9
350
65
  3
D0
350
66
  3
D1
350
67
  3
D2
350
68
  0
LAYOUT
  5
26
102
{ACAD_REACTORS
330
1A
102
}
330
1A
100
AcDbPlotSettings
  1

  2
none_device
  4
ISO_A4_(210.00_x_297.00_MM)
  6

 40
7.5
 41
20.0
 42
7.5
 43
20.0
 44
210.0
 45
297.0
 46
0.0
 47
0.0
 48
0.0
 49
0.0
140
0.0
141
0.0
142
1.0
143
0.6031128405
 70
   688
 72
     1
 73
     1
 74
     1
  7

 75
     0
147
1.6580645161
148
77.5
149
0.0
100
AcDbLayout
  1
_Back
 70
     1
 71
     2
 10
0.0
 20
0.0
 11
0.0
 21
0.0
 12
0.0
 22
0.0
 32
0.0
 14
0.0
 24
0.0
 34
0.0
 15
0.0
 25
0.0
 35
0.0
146
0.0
 13
0.0
 23
0.0
 33
0.0
 16
1.0
 26
0.0
 36
0.0
 17
0.0
 27
1.0
 37
0.0
 76
     0
330
23
331
3C3
  0
LAYOUT
  5
20C
102
{ACAD_REACTORS
330
1A
102
}
330
1A
100
AcDbPlotSettings
  1

  2
none_device
  4
ANSI_A_(11.00_x_8.50_Inches)
  6

 40
6.35
 41
19.05
 42
6.35000508
 43
19.05000254
 44
279.4
 45
215.9
 46
133.34999746
 47
88.89999873
 48
0.0
 49
0.0
140
0.0
141
0.0
142
0.0702580645
143
1.0
 70
  1696
 72
     0
 73
     0
 74
     1
  7

 75
     0
147
0.0677419342
148
1968.5
149
711.2
100
AcDbLayout
  1
_Bottom
 70
     1
 71
     3
 10
0.0
 20
0.0
 11
0.0
 21
0.0
 12
0.0
 22
0.0
 32
0.0
 14
-77.5
 24
-28.0
 34
0.0
 15
77.5
 25
28.0
 35
0.0
146
0.0
 13
0.0
 23
0.0
 33
0.0
 16
1.0
 26
0.0
 36
0.0
 17
0.0
 27
1.0
 37
0.0
 76
     0
330
20B
331
3C5
  0
LAYOUT
  5
1E
102
{ACAD_REACTORS
330
1A
102
}
330
1A
100
AcDbPlotSettings
  1

  2
none_device
  4
ISO_A4_(210.00_x_297.00_MM)
  6

 40
7.5
 41
20.0
 42
7.5
 43
20.0
 44
210.0
 45
297.0
 46
0.0
 47
0.0
 48
0.0
 49
0.0
140
0.0
141
0.0
142
1.0
143
0.6031128405
 70
   688
 72
     1
 73
     1
 74
     1
  7

 75
     0
147
1.6580645161
148
77.5
149
0.0
100
AcDbLayout
  1
_Front
 70
     1
 71
     1
 10
-89.5622568093
 20
-4.5233463035
 11
89.5622568093
 21
122.1303501946
 12
0.0
 22
0.0
 32
0.0
 14
1.0000000000E+20
 24
1.0000000000E+20
 34
1.0000000000E+20
 15
-1.0000000000E+20
 25
-1.0000000000E+20
 35
-1.0000000000E+20
146
0.0
 13
0.0
 23
0.0
 33
0.0
 16
1.0
 26
0.0
 36
0.0
 17
0.0
 27
1.0
 37
0.0
 76
     0
330
1B
331
3C1
  0
LAYOUT
  5
2AE
102
{ACAD_REACTORS
330
1A
102
}
330
1A
100
AcDbPlotSettings
  1

  2
none_device
  4
ISO_A4_(210.00_x_297.00_MM)
  6

 40
7.5
 41
20.0
 42
7.5
 43
20.0
 44
210.0
 45
297.0
 46
0.0
 47
0.0
 48
0.0
 49
0.0
140
0.0
141
0.0
142
1.0
143
0.6031128405
 70
   688
 72
     1
 73
     1
 74
     1
  7

 75
     0
147
1.6580645161
148
77.5
149
0.0
100
AcDbLayout
  1
_Isometric
 70
     1
 71
     4
 10
0.0
 20
0.0
 11
0.0
 21
0.0
 12
0.0
 22
0.0
 32
0.0
 14
0.0
 24
0.0
 34
0.0
 15
0.0
 25
0.0
 35
0.0
146
0.0
 13
0.0
 23
0.0
 33
0.0
 16
1.0
 26
0.0
 36
0.0
 17
0.0
 27
1.0
 37
0.0
 76
     0
330
2AD
331
3C7
  0
LAYOUT
  5
22
102
{ACAD_REACTORS
330
1A
102
}
330
1A
100
AcDbPlotSettings
  1

  2
none_device
  4
Letter_(8.50_x_11.00_Inches)
  6

 40
6.35
 41
6.35
 42
6.35000508
 43
6.35000508
 44
215.9
 45
279.4
 46
0.0
 47
0.0
 48
0.0
 49
0.0
140
0.0
141
0.0
142
1.0
143
1.0
 70
  1712
 72
     1
 73
     0
 74
     0
  7

 75
     0
147
1.0
148
0.0
149
0.0
100
AcDbLayout
  1
Model
 70
     1
 71
     0
 10
0.0
 20
0.0
 11
420.0
 21
297.0
 12
0.0
 22
0.0
 32
0.0
 14
-77.5
 24
-28.0
 34
0.0
 15
77.5
 25
28.0
 35
0.0
146
0.0
 13
0.0
 23
0.0
 33
0.0
 16
1.0
 26
0.0
 36
0.0
 17
0.0
 27
1.0
 37
0.0
 76
     0
330
1F
331
29
  0
MLINESTYLE
  5
18
102
{ACAD_REACTORS
330
17
102
}
330
17
100
AcDbMlineStyle
  2
Standard
 70
     0
  3

 62
   256
 51
90.0
 52
90.0
 71
     2
 49
0.5
 62
   256
  6
BYLAYER
 49
-0.5
 62
   256
  6
BYLAYER
  0
ACDBPLACEHOLDER
  5
F
102
{ACAD_REACTORS
330
E
102
}
330
E
  0
SCALE
  5
48
102
{ACAD_REACTORS
330
47
102
}
330
47
100
AcDbScale
 70
     0
300
1:1
140
1.0
141
1.0
290
     1
  0
SCALE
  5
49
102
{ACAD_REACTORS
330
47
102
}
330
47
100
AcDbScale
 70
     0
300
1:2
140
1.0
141
2.0
290
     0
  0
SCALE
  5
4A
102
{ACAD_REACTORS
330
47
102
}
330
47
100
AcDbScale
 70
     0
300
1:4
140
1.0
141
4.0
290
     0
  0
SCALE
  5
4B
102
{ACAD_REACTORS
330
47
102
}
330
47
100
AcDbScale
 70
     0
300
1:5
140
1.0
141
5.0
290
     0
  0
SCALE
  5
4C
102
{ACAD_REACTORS
330
47
102
}
330
47
100
AcDbScale
 70
     0
300
1:8
140
1.0
141
8.0
290
     0
  0
SCALE
  5
4D
102
{ACAD_REACTORS
330
47
102
}
330
47
100
AcDbScale
 70
     0
300
1:10
140
1.0
141
10.0
290
     0
  0
SCALE
  5
4E
102
{ACAD_REACTORS
330
47
102
}
330
47
100
AcDbScale
 70
     0
300
1:16
140
1.0
141
16.0
290
     0
  0
SCALE
  5
4F
102
{ACAD_REACTORS
330
47
102
}
330
47
100
AcDbScale
 70
     0
300
1:20
140
1.0
141
20.0
290
     0
  0
SCALE
  5
50
102
{ACAD_REACTORS
330
47
102
}
330
47
100
AcDbScale
 70
     0
300
1:30
140
1.0
141
30.0
290
     0
  0
SCALE
  5
51
102
{ACAD_REACTORS
330
47
102
}
330
47
100
AcDbScale
 70
     0
300
1:40
140
1.0
141
40.0
290
     0
  0
SCALE
  5
52
102
{ACAD_REACTORS
330
47
102
}
330
47
100
AcDbScale
 70
     0
300
1:50
140
1.0
141
50.0
290
     0
  0
SCALE
  5
53
102
{ACAD_REACTORS
330
47
102
}
330
47
100
AcDbScale
 70
     0
300
1:100
140
1.0
141
100.0
290
     0
  0
SCALE
  5
54
102
{ACAD_REACTORS
330
47
102
}
330
47
100
AcDbScale
 70
     0
300
2:1
140
2.0
141
1.0
290
     0
  0
SCALE
  5
55
102
{ACAD_REACTORS
330
47
102
}
330
47
100
AcDbScale
 70
     0
300
4:1
140
4.0
141
1.0
290
     0
  0
SCALE
  5
56
102
{ACAD_REACTORS
330
47
102
}
330
47
100
AcDbScale
 70
     0
300
8:1
140
8.0
141
1.0
290
     0
  0
SCALE
  5
57
102
{ACAD_REACTORS
330
47
102
}
330
47
100
AcDbScale
 70
     0
300
10:1
140
10.0
141
1.0
290
     0
  0
SCALE
  5
58
102
{ACAD_REACTORS
330
47
102
}
330
47
100
AcDbScale
 70
     0
300
100:1
140
100.0
141
1.0
290
     0
  0
SCALE
  5
59
102
{ACAD_REACTORS
330
47
102
}
330
47
100
AcDbScale
 70
     0
300
1/128" = 1'-0"
140
0.0078125
141
12.0
290
     0
  0
SCALE
  5
5A
102
{ACAD_REACTORS
330
47
102
}
330
47
100
AcDbScale
 70
     0
300
1/64" = 1'-0"
140
0.015625
141
12.0
290
     0
  0
SCALE
  5
5B
102
{ACAD_REACTORS
330
47
102
}
330
47
100
AcDbScale
 70
     0
300
1/32" = 1'-0"
140
0.03125
141
12.0
290
     0
  0
SCALE
  5
5C
102
{ACAD_REACTORS
330
47
102
}
330
47
100
AcDbScale
 70
     0
300
1/16" = 1'-0"
140
0.0625
141
12.0
290
     0
  0
SCALE
  5
5D
102
{ACAD_REACTORS
330
47
102
}
330
47
100
AcDbScale
 70
     0
300
3/32" = 1'-0"
140
0.09375
141
12.0
290
     0
  0
SCALE
  5
5E
102
{ACAD_REACTORS
330
47
102
}
330
47
100
AcDbScale
 70
     0
300
1/8" = 1'-0"
140
0.125
141
12.0
290
     0
  0
SCALE
  5
5F
102
{ACAD_REACTORS
330
47
102
}
330
47
100
AcDbScale
 70
     0
300
3/16" = 1'-0"
140
0.1875
141
12.0
290
     0
  0
SCALE
  5
60
102
{ACAD_REACTORS
330
47
102
}
330
47
100
AcDbScale
 70
     0
300
1/4" = 1'-0"
140
0.25
141
12.0
290
     0
  0
SCALE
  5
61
102
{ACAD_REACTORS
330
47
102
}
330
47
100
AcDbScale
 70
     0
300
3/8" = 1'-0"
140
0.375
141
12.0
290
     0
  0
SCALE
  5
62
102
{ACAD_REACTORS
330
47
102
}
330
47
100
AcDbScale
 70
     0
300
1/2" = 1'-0"
140
0.5
141
12.0
290
     0
  0
SCALE
  5
63
102
{ACAD_REACTORS
330
47
102
}
330
47
100
AcDbScale
 70
     0
300
3/4" = 1'-0"
140
0.75
141
12.0
290
     0
  0
SCALE
  5
64
102
{ACAD_REACTORS
330
47
102
}
330
47
100
AcDbScale
 70
     0
300
1" = 1'-0"
140
1.0
141
12.0
290
     0
  0
SCALE
  5
65
102
{ACAD_REACTORS
330
47
102
}
330
47
100
AcDbScale
 70
     0
300
1-1/2" = 1'-0"
140
1.5
141
12.0
290
     0
  0
SCALE
  5
66
102
{ACAD_REACTORS
330
47
102
}
330
47
100
AcDbScale
 70
     0
300
3" = 1'-0"
140
3.0
141
12.0
290
     0
  0
SCALE
  5
67
102
{ACAD_REACTORS
330
47
102
}
330
47
100
AcDbScale
 70
     0
300
6" = 1'-0"
140
6.0
141
12.0
290
     0
  0
SCALE
  5
68
102
{ACAD_REACTORS
330
47
102
}
330
47
100
AcDbScale
 70
     0
300
1'-0" = 1'-0"
140
12.0
141
12.0
290
     0
  0
ENDSEC
  0
EOF
